Iron And Wine - Such Great Heights Chords & Tabs

 

Such Great Heights Chords & Tabs

Iron And Wine Chords & Tabs

Version: 1 Type: Tab 3 ratings
1 star 2 stars 3 stars 4 stars 5 stars
comments

Such Great Heights Tab

Artist: Iron and Wine
Song: Such Great Heights
Album: Garden State Soundtrack

This is Iron and Wine's cover of The Postal Service's 'Such Great Heights' off 
of the Garden State soundtrack. The song is a lot easier to play with a capo on
the 6th fret but if you don't have one, it's not that difficult. I've only
tabbed the main guitar that repeats the same rhythm throughout the song as
well as the solo at the end. There is a second guitar that adds little notes
here and there that isn't included. Any questions or comments can be sent to 
bborred@hotmail.com



INTRO/VERSE/CHORUS
[ Tab from: http://www.guitartabs.cc/tabs/i/iron_and_wine/such_great_heights_tab.html ]
      x2              x2              x2             x1             x1
|-------6-----|---------9------|--------7-----|--------6-----|--------9-----|
|-7-------7---|-9---------9----|--7-------7---|--7-------7---|--6-------6---|
|---6-------6-|---10--------10-|----8-------8-|----6-------6-|----6-------6-|
|-----8-------|------11--------|------9-------|------8-------|------6-------|
|-9-----------|----------------|--9-----------|--9-----------|--8-----------|
|-------------|-9--------------|--------------|--------------|--------------|


SOLO

|-19----20-19----19-22---24-22----22-20---20-19----19-19--20-19----22-|
|-20----------20----22---------19----20---------20----19--------20-22-|
|---------------------------------------------------------------------|
|---------------------------------------------------------------------|
|---------------------------------------------------------------------|
|---------------------------------------------------------------------|
Comments