Iron And Wine - On Your Wings Chords & Tabs

 

On Your Wings Chords & Tabs

Iron And Wine Chords & Tabs

Version: 1 Type: Tab 0 ratings
1 star 2 stars 3 stars 4 stars 5 stars
comments

On Your Wings Tab

-----------------------------------------------------------------------------
			     On Your Wings - Iron & Wine
-----------------------------------------------------------------------------
Tabbed by: Kyle
Email: krwherry868
*This tab is played with a slide and is only the slide part. Listen to the song and 
out repetition and whatnot*

Tuning:

e|---------------------------------------------------------------------------|
B|------5/8------------------------------------------------------------------|
G|---------------5/7---------------------------------------------------------|
D|---------------------------------------------------------------------------|
A|---------------------------------------------------------------------------|
E|---------------------------------------------------------------------------|
[ Tab from: http://www.guitartabs.cc/tabs/i/iron_and_wine/on_your_wings_tab.html ]
e|---------------------------------------------------------------------------|
B|------------------11\10--10\8--8\6--6/8--8---------------------------------|
G|------5/7\5--------------------------------------5/7-----------------------|
D|---------------------------------------------------------------------------|
A|---------------------------------------------------------------------------|
E|---------------------------------------------------------------------------|

solo/outro thing
e|---------------------------------------------------------------------------|
B|---------------------------------------------------------------------------|
G|------5/7-10-12-10----5/7-10-12-15-12--------------------------------------|
D|---------------------------------------------------------------------------|
A|---------------------------------------------------------------------------|
E|---------------------------------------------------------------------------|


| /  slide up
| \  slide down
=============================================================================
Comments