Iron And Wine - Jesus The Mexican Boy Chords & Tabs

 

Jesus The Mexican Boy Chords & Tabs

Iron And Wine Chords & Tabs

Version: 1 Type: Tab

Jesus The Mexican Boy Tab

   
-----------------------------------------------------------------
JESUS THE MEXICAN BOY - Iron & Wine
-----------------------------------------------------------------
Tabbed by: meyer914
Email: markosmeyer@gmail.com

Tuning: Tune each string down 1/2 step (Eb-Ab-Db-Gb-Bb-Db)

chords used:

       EADGBe

    G: 320003
    C: x32010
    D: xx0232
Dsus2: xx0230
Dsus4: xx0233

    G
e|-----------------------------------------------------|
B|--0----------0----------0----------0-----------------|
G|-----0----------0----------0----------0--------------|
D|--------0----------0----------0----------0-----------|
A|-----------------------------------------------------|
E|--3----------3----------3----------3-----------------|

 Jesus   the   Mexican    Boy        Born in a

    C
e|-------------0---------------------0-----------------|
B|--1-------------1-------1-------------1--------------|
G|-----0-------------0-------0-------------0-----------|
D|--------2---------------------2----------------------|
A|--3----------3----------3----------3-----------------|
E|-----------------------------------------------------|
[ Tab from: http://www.guitartabs.cc/tabs/i/iron_and_wine/jesus_the_mexican_boy_tab.html ]
   Truck on the Fourth of July       Gave me a

    G
e|-----------------------------------------------------|
B|--0----------0----------0----------0-----------------|
G|-----0----------0----------0----------0--------------|
D|--------0----------0----------0----------0-----------|
A|-----------------------------------------------------|
E|--3----------3----------3----------3-----------------|

 Card with a   lady       naked      on the

    D          sus2        sus4
e|--2----------0-----------3p2-----0-------------------|
B|-----3----------3---------------------3--------------|
G|--------2----------2---------------------2-----------|
D|--0----------0-----------0---------------------------|
A|-----------------------------------------------------|
E|-----------------------------------------------------|

    Back


There are a few variation but you'll be able to figure them out.
Sometimes in the change from G to C, he walks up to the C like this:

  (G)        C
e|--------|-------------0--------|
B|--------|--1-------------1-----|
G|--------|-----0-------------0--|
D|--------|--------2-------------|
A|--0--2--|--3----------3--------|
E|--------|----------------------|

If you want the solo tabbed out, just send me an email.

Enjoy