Iron And Wine - Fever Dream Chords & Tabs

 

Fever Dream Chords & Tabs

Iron And Wine Chords & Tabs

Version: 1 Type: Tab 0 ratings
1 star 2 stars 3 stars 4 stars 5 stars
comments

Fever Dream Tab

   
-----------------------------------------------------------------
FEVER DREAM
By: Iron & Wine
Album: Our Endless Numbered Days
-----------------------------------------------------------------
Tabbed by: Cassie
Email: cassirus@yahoo.com

This is my first tab, so there's definitely room for mistakes in 
this. Feel free to e-mail me about anything conerning this, thanks.

Tuning: Standard tuning, capo on 2nd fret. Tab is relative to capo.


Intro/Verse:
e|---4------0-------4|-------0---------|-----------------|----------------|
B|--------0-------0--|-----0-----------|-3------3-------3|-------3--------|
G|------0-------0----|---0-------0-----|----0-------0----|---0-------0----|
D|---2--------2------|-2-------2---0---|------4-------4--|-----4-------4--|
A|-------------------|-----------------|-3--------3------|-3-------3------|
E|-------------------|-----------------|-----------------|----------------|

e|----------0--------|-----------------|-----------------|----------------|
B|--1-----------1----|-3------3--------|-3------3-------3|-------3--------|
G|-----0----------0--|----0-------0----|----0-------0----|---0-------0----|
D|-------2-----------|------4-------4--|------5-------5--|-----5-------0--|
A|--0---------0------|-2--------2------|-3--------3------|-3-------3------|
E|-------------------|-----------------|-----------------|----------------|

Some days her shape in the doorway
Will speak to me
A bird’s wing on the window
Sometimes I’ll hear when she’s sleeping
Her fever dream
A language on her face


Chorus:
e|---------0--------|-------0------|-2------0-------2|-------0-------------|
B|--1----------1---1|--------------|-----------------|---------------------|
G|-----0---------0--|---0-------0--|----0-2-----0-2--|---0-2-----0-2-------|
D|-------2----------|-----2-------2|-0--------0------|-0-------0-----------|
A|--0--------0------|-0-------0----|-----------------|---------------------|
E|------------------|--------------|-----------------|---------------------| (x2)
[ Tab from: http://www.guitartabs.cc/tabs/i/iron_and_wine/fever_dream_tab.html ]
e|---------0--------|-------0-------|---------0--------|--------------------|
B|--1--------------1|---------------|--0--------------0|---------1-------0--|
G|-----0-------0----|---0-------0---|-----0-------0----|---0---------0------|
D|-------2-------2--|-----2-------2-|-------0-------0--|-----0h2-------0----|
A|--0--------0------|-0-------0-----|------------------|--------------------|
E|------------------|---------------|--3--------3------|-3---------3--------|

e|---------0-------5|-------5--------|
B|--0----------0----|---0-------0----|
G|-----0---------0--|-----0-------0--|
D|-------0----------|----------------|
A|------------------|----------------|
E|--3--------3------|-3-------3------|

I want your flowers like babies want God's love
Or maybe as sure as tomorrow will come


(lead is played over the verse once):
e|--9~~~~-----------|--9-10-10/12-10-9-|-9/10--9-5~~~---|--5-7-7/9-7-5--|
B|------------------|------------------|----------------|---------------|
G|------------------|------------------|----------------|---------------|
D|------------------|------------------|----------------|---------------|
A|------------------|------------------|----------------|---------------|
E|------------------|------------------|----------------|---------------|

e|-5/7--5-2~~~------|--7--9-5--7--5~~~-|--------------7-|--4~~~~~-------|
B|------------------|------------------|----------------|---------------|
G|------------------|------------------|----------------|---------------|
D|------------------|------------------|----------------|---------------|
A|------------------|------------------|----------------|---------------|
E|------------------|------------------|----------------|---------------|


(verse):
Some days, like rain on the doorstep
She’ll cover me
With grace in all she offers
Sometimes I'd like just to ask her
What honest words
She can’t afford to say, like 

(chorus):
"I want your flowers like babies want God’s love
Or maybe as sure as tomorrow will come"

(verse)(x2)
end last time with:
e|----------0--------|-----------------|-----------------|
B|--1-----------1----|-3------3--------|-3~~-------------|
G|-----0----------0--|----0-------0----|-----------------|
D|-------2-----------|------4-------4--|-----------------|
A|--0---------0------|-2--------2------|-3~~-------------|
E|-------------------|-----------------|-----------------|


| / slide up
|  slide down
| h hammer-on
| p pull-off
| ~ vibrato
| + harmonic
| x Mute note
Comments