Iron And Wine - Communion Cups And Someones Coat Chords & Tabs

 

Communion Cups And Someones Coat Chords & Tabs

Iron And Wine Chords & Tabs

Version: 1 Type: Tab

Communion Cups And Someones Coat Tab

   
-------------------------------------------------------------------------------
			     communion cups and someone's coat - iron & wine
-------------------------------------------------------------------------------
Tabbed by:  NOSSTROSSOLIS 
Email: aneyer@mica.edu

Tuning: E A D G B D

Capo on 4th


Intro: x 2

d|------0--------------------------------0--------5------7------5-------0-------|
B|0--------------0h1p0------------------------------3------3------0-------------|
G|--0------0-----------2p0-----0----0--------0--------0------0------0------0----|
D|----7------7-------------0h2--------7--------0----------------------7------7--|
A|3------3------------------------3--------3----------------------3-------3-----|
E|---------------3--------------------------------3-----------------------------|

d|------------------------0--------5-----------|
B|0h1p0-------------------------------3-----3--|
G|------2p0-----0----0--------0----------0-----|
D|----------0h2--------7--------0--------------|
A|-----------------3--------3------------------|
E|3--------------------------------3-----------|


Verse 1:
d|------0--------------------------------0--------5------7------5-------0-------|
B|0--------------0h1p0------------------------------3------3------0-------------|
G|--0------0-----------2p0-----0----0--------0--------0------0------0------0----|
D|----7------7-------------0h2--------7--------0----------------------7------7--|
A|3------3------------------------3--------3----------------------3-------3-----|
E|---------------3--------------------------------3-----------------------------|
                Talk of yesterday...
d|------------------------0--------5------------|
B|0h1p0-------------------------------3-----3---|
G|------2p0-----0----0--------0----------0------|
D|----------0h2--------7--------0---------------|
A|-----------------3--------3-------------------|
E|3--------------------------------3------------|

d|------0--------------------------------0--------5------7------5-------0-------|
B|0--------------0h1p0------------------------------3------3------0-------------|
G|--0------0-----------2p0-----0----0--------0--------0------0------0------0----|
D|----7------7-------------0 h2--------7--------0----------------------7------7-|
A|3------3------------------------3--------3----------------------3-------3-----|
E|---------------3--------------------------------3-----------------------------|
                Say tomorrow...
d|------------------------0--------5-----------|
B|0h1p0-------------------------------3-----3--|
G|------2p0-----0----0--------0----------0-----|
D|----------0h2--------7--------0--------------|
A|-----------------3--------3------------------|
E|3--------------------------------3-----------|

Chorus: x2
d|-----0------------0------------0---------------0----------|
B|0------------0------------0------------0------------------|
G|-------0-----------0---------------0-------0-------0------|
D|---2-----2/4----4-----4/5----5-------5-------5-------5----|
A|0------------2------------3------3-------3-------3--------|
E|----------------------------------------------------------|
   But say...

[ Tab from: http://www.guitartabs.cc/tabs/i/iron_and_wine/communion_cups_and_someones_coat_tab.html ]
d|------0--------------------------------0--------5------7------5-------0-------|
B|0--------------0h1p0------------------------------3------3------0-------------|
G|--0------0-----------2p0-----0----0--------0--------0------0------0------0----|
D|----7------7-------------0h2--------7--------0----------------------7------7--|
A|3------3------------------------3--------3----------------------3-------3-----|
E|---------------3--------------------------------3-----------------------------|

d|------------------------0--------5-----------|
B|0h1p0-------------------------------3-----3--|
G|------2p0-----0----0--------0----------0-----|
D|----------0h2--------7--------0--------------|
A|-----------------3--------3------------------|
E|3--------------------------------3-----------|


Verse 2:
d|------0--------------------------------0--------5------7------5-------0-------|
B|0--------------0h1p0------------------------------3------3------0-------------|
G|--0------0-----------2p0-----0----0--------0--------0------0------0------0----|
D|----7------7-------------0h2--------7--------0----------------------7------7--|
A|3------3------------------------3--------3----------------------3-------3-----|
E|---------------3--------------------------------3-----------------------------|
                Talk of yesterday...
d|------------------------0--------5----------|
B|0h1p0-------------------------------3-----3-|
G|------2p0-----0----0--------0----------0----|
D|----------0h2--------7--------0-------------|
A|-----------------3--------3-----------------|
E|3--------------------------------3----------|

d|------0--------------------------------0--------5------7------5-------0-------|
B|0--------------0h1p0------------------------------3------3------0-------------|
G|--0------0-----------2p0-----0----0--------0--------0------0------0------0----|
D|----7------7-------------0h2--------7--------0----------------------7------7--|
A|3------3------------------------3--------3----------------------3-------3-----|
E|---------------3--------------------------------3-----------------------------|
                Say tomorrow...
d|------------------------0--------5-----------|
B|0h1p0-------------------------------3-----3--|
G|------2p0-----0----0--------0----------0-----|
D|----------0h2--------7--------0--------------|
A|-----------------3--------3------------------|
E|3--------------------------------3-----------|


Chorus: x2
d|-----0------------0------------0---------------0----------|
B|0------------0------------0------------0------------------|
G|-------0-----------0---------------0-------0-------0------|
D|---2-----2/4----4-----4/5----5-------5-------5-------5----|
A|0------------2------------3------3-------3-------3--------|
E|----------------------------------------------------------|
   But say...


d|------0--------------------------------0--------5------7------5-------0-------|
B|0--------------0h1p0------------------------------3------3------0-------------|
G|--0------0-----------2p0-----0----0--------0--------0------0------0------0----|
D|----7------7-------------0h2--------7--------0----------------------7------7--|
A|3------3------------------------3--------3----------------------3-------3-----|
E|---------------3--------------------------------3-----------------------------|

d|------------------------0--------5-----------------|
B|0h1p0-----------------------------------3----------|
G|------2p0-----0----0--------0----------------------|
D|----------0h2--------7--------0---------------0----|
A|-----------------3--------3------------------------|
E|3--------------------------------3-----------------|

| /  slide up
| \  slide down
| h  hammer-on
| p  pull-off
| ~  vibrato
| +  harmonic
| x  Mute note
===============================================================================