Inxs - Pretty Vegas Riff Chords & Tabs

 

Pretty Vegas Riff Chords & Tabs

Inxs Chords & Tabs

Version: 1 Type: Tab 2 ratings
1 star 2 stars 3 stars 4 stars 5 stars
comments

Pretty Vegas Riff Tab

   
Pretty Vegas (riff) by: INXS

main riff:

C    Bb/C C   Bb/C
---------|---------|
---------|---------|
----5-3--|--5-5-3--|
----5-3--|--5-5-3--|
-3-------|---------|
---------|---------|


* riff 1
[ Tab from: http://www.guitartabs.cc/tabs/i/inxs/pretty_vegas_riff_tab.html ]
--------------
--------------
--------------
---------1----
-3--1--3------
--------------


* riff 2
 C       Bb      F

|-----12----14--|----12-----|
|--------13-----|-------13--|
|-12------------|-12--------|
|---------------|-----------|
|---------------|-----------|
|---------------|-----------|

-tabbed by Lunt
Comments