Inxs - Never Tear Us Apart Chords & Tabs

 

Never Tear Us Apart Chords & Tabs

Inxs Chords & Tabs

Version: 1 Type: Tab 0 ratings
1 star 2 stars 3 stars 4 stars 5 stars
comments

Never Tear Us Apart Tab

   
////////////////////////////////////////////////////

        INXS - Never Tear Us Apart
            Tabbed by Dan Viney
              Acoustic Version
///////////////////////////////////////////////////

I have extended the introduction.  The first half 
should have a feel of the strings section, the second 
half should have a palm muting powerful strum to really
drive the rhythm home.  Play to a copy of the song to get 
the feel.

Solo - the basic notes are tabbed... I suggest playing over
the notes and giving your own timing and feel to it. Again
play along to the music to get the timing.

Break - at the break hold silence, then add the riff, then at 
the final play of A (6th string, 5th fret) thump your palm on
the bottom of your acoustic to give the drum beat leading into
the next verse.

Any and all queries / corrections and improvements are more than 
welcome!! email to dsv001@student.usc.edu.au

Enjoy this powerful song!


INTRO: (Am / Am7 / F / Fadd9 / Dm /  Dm / F / F /
        Am / Am  / F / F     / Dm /  Dm / F / F /)

  Am              Am7       F             Fadd9
  /           /           /           /
E|0-0-0-0-0-0-0-0-3-3-3-3-3-1-1-1-1-1-1-1-3-3-3-3-|
B|1-1-1-1-1-1-1-1-1-1-1-1-1-1-1-1-1-1-1-1-1-1-1-1-|
G|2-2-2-2-2-2-2-2-2-2-2-2-2-2-2-2-2-2-2-2-2-2-2-2-|
D|2-2-2-2-2-2-2-2-2-2-2-2-2-3-3-3-3-3-3-3-3-3-3-3-|
A|0-0-0-0-0-0-0-0-0-0-0-0-0-----------------------|
E|------------------------------------------------|

  Dm                      F
  /           /           /           /
E|5---5---5---5---5---5---5-5-5-5-5-5-5-5-5-5-5-5-|
B|6-6-6-6-6-6-6-6-6-6-6-6-6-6-6-6-6-6-6-6-6-6-6-6-|
G|7-7-7-7-7-7-7-7-7-7-7-7-5-5-5-5-5-5-5-5-5-5-5-5-|
D|7-7-7-7-7-7-7-7-7-7-7-7-------------------------|
A|5---5---5---5---5---5---8---8---8---8---8---8---|
E|------------------------------------------------|
[ Tab from: http://www.guitartabs.cc/tabs/i/inxs/never_tear_us_apart_tab.html ]
**(palm mute and switch Dm and F chords to ones noted 
   below - maintain these chord formations for duration
   of song)**

 |Am (x02210)|            |F (133211) |           |
 
 |Dm (xx0231)|            |F (133211) |           |





      Am               F
Don't ask me, what you know is true
              Dm          F
Don't have to tell you, I love your precious heart


C        F
I
      C        F
I was standing
         C        F
You were there
           C        F
Two worlds collided
               G
And they could never tear us apart


BREAK: (silence)
A|-----3--5-----|
E|--5--------5--|  x2
(thump)

         Am         F
We could live for a thousand years
         Dm            F
But if I hurt you, I'd make wine from your tears
  Am            F
I told you that we could fly
         Dm                 F
Cause we all have wings but some of us don't know why


C        F
I
      C        F
I was standing
         C        F
You were there
           C        F
Two worlds collided
               G
And they could never, ever, tear us apart


BREAK: (silence)
A|-----3--5-----|
E|--5--------5--|  x2
(thump)


SOLO (Rhythm guitar plays verse chords to back lead)

e--15b-r--13-12-----------15--12--12-12----------12-13(15)
b---------------15--13----------15------15-13-15------
g----------------------14-----------------------------	   
d-----------------------------------------------------
a-----------------------------------------------------
e-----------------------------------------------------

C        F
I
(Don't ask me)
      C        F
I was standing
(You know it's true)
         C        F
You were there
(Worlds collided)
           C        F
Two worlds collided
(Shining through)
               G
And they could never tear us apart


REPEAT & FADE
Comments