Inxs - Need You Tonight Chords & Tabs

 

Need You Tonight Chords & Tabs

Inxs Chords & Tabs

Version: 3 Type: Tab 0 ratings
1 star 2 stars 3 stars 4 stars 5 stars
comments

Need You Tonight Tab

InXS - Need you Tonight


guitar 1
E||------------------|------------------|---------------------------|
B||------------------|------------------|---------------------------|
G||------------------|------------------|---------------------------|
D||------------------|------------------|---------------------------|
A||------------------|------------------|---------------------------|
E||------------------|------------------|---------------------------|
 guitar 2
E||------------------|------------------|---------------------------|
B||------------------|------------------|---------------------------|
G||------------------|------------------|---------------------------|
D||------------------|------------------|---------------------------|
A||------------------|------------------|---------------------------|
E||------------------|------------------|---------------------------|
 guitar 3
E||------------------|------------------|--8------8------8----------|
B||------------------|------------------|--8------8------8----------|
G||------------------|------------------|--9------9------9----------|
D||------------------|------------------|--10-----10-----10---------|
A||------------------|------------------|---------------------------|
E||------------------|------------------|---------------------------|

----------------------------------|---------------------------|
----------------------------------|---------------------------|
----------------------------------|---------------------------|
----------------------------------|---------------------------|
----------------------------------|---------------------------|
----------------------------------|---------------------------|

----------------------------------|---------------------------|
----------------------------------|---------------------------|
----------------------------------|---------------------------|
--1-----------0-------------------|---------------------------|
-----------------------3----------|---------------------------|
----------------------------------|---------------------------|

--11-11-11-11-10-10-10-8----------|--8------8------8----------|
--11-11-11-11-10-10-10-8----------|--8------8------8----------|
--12-12-12-12-10-10-10-9----------|--9------9------9----------|
--13-13-13-13-12-12-12-10---------|--10-----10-----10---------|
----------------------------------|---------------------------|
----------------------------------|---------------------------|

----------------------------------|
----------------------------------|
----------------------------------|
----------------------------------|
----------------------------------|
----------------------------------|

----------------------------------|
----------------------------------|
----------------------------------|
--1-----------0-------------------|
-----------------------3----------|
----------------------------------|

--11-11-11-11-10-10-10-8----------|
--11-11-11-11-10-10-10-8----------|
--12-12-12-12-10-10-10-9----------|
--11-11-11-11-10-10-10-8----------|
----------------------------------|
----------------------------------|

-----------------------------|------------------------------|
--1-1h3--4--3p1---1h3--4--3--|--1-1h3---4--3p1--1h3---4--3--|
-----------------------------|------------------------------|
-----------------------------|------------------------------|
-----------------------------|------------------------------|
-----------------------------|------------------------------|

-----------------------------|------------------------------|
-----------------------------|------------------------------|
-----------------------------|------------------------------|
-----------------------------|------------------------------|
--3---------1---3------------|------------------------1--2--|
-----------------------------|--1-----1-1------1---1--------|

------------------------12---|------------------------------|
------------------------13---|------------------------------|
------------------------12---|------------------------------|
-----------------------------|------------------------------|
-----------------------------|------------------------------|
-----------------------------|------------------------------|

-----------------------------|------------------------------|
--1-1h3--4--3p1---1h3--4--3--|--1-1h3---4--3p1--1h3---4--3--|
-----------------------------|------------------------------|
-----------------------------|------------------------------|
-----------------------------|------------------------------|
-----------------------------|------------------------------|

-----------------------------|------------------------------|
-----------------------------|------------------------------|
-----------------------------|------------------------------|
-----------------------------|------------------------------|
--3---------1---3------------|------------------------1--2--|
-----------------------------|--1-----1-1------1---1--------|

------------------------12---|------------------------------|
------------------------13---|------------------------------|
------------------------12---|------------------------------|
-----------------------------|------------------------------|
-----------------------------|------------------------------|
-----------------------------|------------------------------|

-----------------------------|------------------------------|
--1-1h3--4--3p1---1h3--4--3--|--1-1h3---4--3p1--1h3---4--3--|
-----------------------------|------------------------------|
-----------------------------|------------------------------|
-----------------------------|------------------------------|
-----------------------------|------------------------------|

-----------------------------|------------------------------|
-----------------------------|------------------------------|
-----------------------------|------------------------------|
-----------------------------|------------------------------|
--3---------1---3------------|------------------------1--2--|
-----------------------------|--1-----1-1------1---1--------|

------------------------12---|------------------------------|
------------------------13---|------------------------------|
------------------------12---|------------------------------|
-----------------------------|------------------------------|
-----------------------------|------------------------------|
-----------------------------|------------------------------|
[ Tab from: http://www.guitartabs.cc/tabs/i/inxs/need_you_tonight_tab_ver_3.html ]
-----------------------------|------------------------------|
--1-1h3--4--3p1---1h3--4--3--|--1-1h3---4--3p1--1h3---4--3--|
-----------------------------|------------------------------|
-----------------------------|------------------------------|
-----------------------------|------------------------------|
-----------------------------|------------------------------|

-----------------------------|------------------------------|
-----------------------------|------------------------------|
-----------------------------|------------------------------|
-----------------------------|------------------------------|
--3---------1---3------------|------------------------1--2--|
-----------------------------|--1-----1-1------1---1--------|

------------------------12---|------------------------------|
------------------------13---|------------------------------|
------------------------12---|------------------------------|
-----------------------------|------------------------------|
-----------------------------|------------------------------|
-----------------------------|------------------------------|

-----------------------------|------------------------------|
--1-1h3--4--3p1---1h3--4--3--|--1-1h3---4--3p1--1h3---4--3--|
-----------------------------|------------------------------|
-----------------------------|------------------------------|
-----------------------------|------------------------------|
-----------------------------|------------------------------|

-----------------------------|------------------------------|
-----------------------------|------------------------------|
-----------------------------|------------------------------|
-----------------------------|------------------------------|
--3---------1---3------------|------------------------1--2--|
-----------------------------|--1-----1-1------1---1--------|

------------------------12---|------------------------------|
------------------------13---|------------------------------|
------------------------12---|------------------------------|
-----------------------------|------------------------------|
-----------------------------|------------------------------|
-----------------------------|------------------------------|

-----------------------------|------------------------------|
--1-1h3--4--3p1---1h3--4--3--|--1-1h3---4--3p1--1h3---4--3--|
-----------------------------|------------------------------|
-----------------------------|------------------------------|
-----------------------------|------------------------------|
-----------------------------|------------------------------|

-----------------------------|------------------------------|
-----------------------------|------------------------------|
-----------------------------|------------------------------|
-----------------------------|------------------------------|
--3---------1---3------------|------------------------1--2--|
-----------------------------|--1-----1-1------1---1--------|

------------------------12---|------------------------------|
------------------------13---|------------------------------|
------------------------12---|------------------------------|
-----------------------------|------------------------------|
-----------------------------|------------------------------|
-----------------------------|------------------------------|

chorus

guitar 2
---------------------------|----------------------------------|
---------------------------|----------------------------------|
---------------------------|----------------------------------|
---------------------------|--1-----------0-------------------|
---------------------------|-----------------------3----------|
---------------------------|----------------------------------|
guitar 3
--8------8------8----------|--11-11-11-11-10-10-10-8----------|
--8------8------8----------|--11-11-11-11-10-10-10-8----------|
--9------9------9----------|--12-12-12-12-10-10-10-9----------|
-10-----10-----10----------|--13-13-13-13-12-12-12-10---------|
---------------------------|----------------------------------|
---------------------------|----------------------------------|

---------------------------|----------------------------------|
---------------------------|----------------------------------|
---------------------------|----------------------------------|
---------------------------|--1-----------0-------------------|
---------------------------|-----------------------3----------|
---------------------------|----------------------------------|

--8------8------8----------|--11-11-11-11-10-10-10-8----------|
--8------8------8----------|--11-11-11-11-10-10-10-8----------|
--9------9------9----------|--12-12-12-12-10-10-10-9----------|
-10-----10-----10----------|--13-13-13-13-12-12-12-10---------|
---------------------------|----------------------------------|
---------------------------|----------------------------------|

---------------------------|----------------------------------|
---------------------------|----------------------------------|
---------------------------|----------------------------------|
---------------------------|--1-----------0-------------------|
---------------------------|-----------------------3----------|
---------------------------|----------------------------------|

--8------8------8----------|--11-11-11-11-10-10-10-8----------|
--8------8------8----------|--11-11-11-11-10-10-10-8----------|
--9------9------9----------|--12-12-12-12-10-10-10-9----------|
-10-----10-----10----------|--13-13-13-13-12-12-12-10---------|
---------------------------|----------------------------------|
---------------------------|----------------------------------|

---------------------------|----------------------------------|
---------------------------|----------------------------------|
---------------------------|----------------------------------|
---------------------------|--1-----------0-------------------|
---------------------------|-----------------------3----------|
---------------------------|----------------------------------|

--8------8------8----------|--11-11-11-11-10-10-10-8----------|
--8------8------8----------|--11-11-11-11-10-10-10-8----------|
--9------9------9----------|--12-12-12-12-10-10-10-9----------|
-10-----10-----10----------|--13-13-13-13-12-12-12-10---------|
---------------------------|----------------------------------|
---------------------------|----------------------------------|

end

guitar 1
--------------------||
--------------------||
--------------------||
--------------------||
--------------------||
--------------------||
guitar 2
--------------------||
--------------------||
--------------------||
--------------------||
--------------------||
--1-----------------||

guitar 3
--------------------||
--------------------||
--------------------||
--------------------||
--------------------||
--------------------||

any corrections, additions feedback on thebigwolff@lycos.com
Comments