Inxs - Mystify Chords & Tabs

 

Mystify Chords & Tabs

Inxs Chords & Tabs

Version: 1 Type: Bass Tab 0 ratings
1 star 2 stars 3 stars 4 stars 5 stars
comments

Mystify Bass Tab

   Song:Mystify
   Artist:INXS
   Tabbed by:Svilen Kostadinov  


  bass comes with: 
  G----------------------------------------
  D----------------------------------------
  A--------3-----------3-------------------
  E----5-------3---5-------3---------------

[ Tab from: http://www.guitartabs.cc/tabs/i/inxs/mystify_btab.html ]
  Verse:
  G----------------------------------------
  D----------------------------------------
  A---55-55--------------------------------
  E---------55-55-33-33-11-11--------------
  
  Chorus:
  G----------------------------------------
  D----------------------------------------
  A----7-7-7-7-----3-5---------------------
  E------------3--3------------------------

  For any coments:e-mail:emko_kpoc@hotmail.com
Comments