Inxs - Kiss The Dirt Chords & Tabs

 

Kiss The Dirt Chords & Tabs

Inxs Chords & Tabs

Version: 2 Type: Bass Tab 0 ratings
1 star 2 stars 3 stars 4 stars 5 stars
comments

Kiss The Dirt Bass Tab

   
INXS - "Kiss the Dirt(Falling Down the Mountain)" - Bass Tab

Common Time(4/4)
Drop Eb Tuning(Eb,A,D,G)

INTRO: Rest(x4 bars)

VERSES:
                                   (x4)
G |------------------|------------------|
D |*-----------------|-----------------*|
A |*-----------------|-----------------*|
Eb|--3-3-3-3-3-3-3-3-|-0-0-0-0-0-0-0-0--|
     1 & 2 & 3 & 4 &   1 & 2 & 3 & 4 &

|-----------------|-----------------|---------|---------|
|-----------------|-----------------|---------|---------|
|-2-2-2-2-2-2-2-2-|-----------------|---------|---------|
|-----------------|-1-1-1-1-1-1-1-1-|-3-r-r-r-|-r-e-s-t-|
  1 & 2 & 3 & 4 &   1 & 2 & 3 & 4 &   1 2 3 4   1 2 3 4   

                                                     (x4) 
|---------|---------|------------------|------------------|
|---------|---------|*-----------------|-----------------*|
|---------|---------|*-----------------|-----------------*|
|-r-e-s-t-|-r-r-r-1/|--3-3-3-3-3-3-3-3-|-0-0-0-0-0-0-0-0--|
  1 2 3 4   1 2 3 4    1 & 2 & 3 & 4 &   1 & 2 & 3 & 4 &

CHORUS:
|---------------|-------------|---------------|----------------|
|-.---.-.-.-.---|-------------|-.---.-.-.-.---|----------------|
|-4-r-4-4-2-4-4/|-6-6-6-6-.-.-|-4-r-4-4-2-4-4/|-6-6-6-6--.-----|
|---------------|---------0-3-|---------------|----------0-3---|
  1 & a 2 & 3 4   1 & 2 & 3 4   1 & a 2 & 3 4    1 & 2 & 3 & 4 
[ Tab from: http://www.guitartabs.cc/tabs/i/inxs/kiss_the_dirt_btab_ver_2.html ]
|---------------|-------------|---------------|-----------------|
|-.---.-.-.-.---|-------------|-.---.-.-.-.---|-----------.-.-.-|
|-4-r-4-4-2-4-4/|-6-6-6-6-.---|-4-r-4-4-2-4-4/|-6-6-6-6-6-4-4-4-|
|---------------|---------0-3-|---------------|-----------------|
  1 & a 2 & 3 4   1 & 2 & 3 4   1 & a 2 & 3 4   1 & 2 & 3 & 4 &

INTERLUDE: 
       (x5)                                      (x3)
|-----------|-----------|----------------|------------|
|*---------*|-----------|*---------------|-----------*|
|*-r-e-s-t-*|-----------|*-.---.-.-.-.-.-|-----------*|
|-----------|-r-15/-/-/-|--3-r-3-3-1-3-3-|-r-r-3-0-1--|
   1 2 3 4    1 2   3 4    1 & a 2 & 3 4   1 2 & 3 4

|---------------|-------------|---------------|-----------|
|---------------|-----1/4-4-4-|---------------|-----------|
|-.---.-.-.-.-.-|-------------|-.---.-.-.-.-.-|-----------|
|-3-r-3-3-1-3-3-|-r-r---------|-3-r-3-3-1-3-3-|-r-r-3-0-1-|
  1 & a 2 & 3 4   1 2 & 3 & 4   1 & a 2 & 3 4   1 2 & 3 4

|---------------|-----------|---------------|-----------|
|---------------|-----.-----|---------------|-----------|
|-.---.-.-.-.-.-|---3p2-----|-.---.-.-.-.-.-|-----------|
|-3-r-3-3-1-3-3-|-r-----0-1-|-3-r-3-3-1-3-3-|-r-r-3-0-1-|
  1 & a 2 & 3 4   1 & 2 3 4   1 & a 2 & 3 4   1 2 & 3 4

|---------------|-------------4p2---|---------------|-----------|
|---------------|-4-4-4-4-4-4-------|---------------|-----------|
|-.---.-.-.-.-.-|-------------------|-.---.-.-.-.-.-|-----------|
|-3-r-3-3-1-3-3-|-------------------|-3-r-3-3-1-3-3-|-r-r-3-0-1-|
  1 & a 2 & 3 4   1 e & a 2 & 3 & 4   1 & a 2 & 3 4   1 2 & 3 4

|---------------|-----------|---------------|-----------|
|---------------|-----------|---------------|-----------|
|-.---.-.-.-.-.-|-----------|-.---.-.-.-.-.-|-----------|
|-3-r-3-3-1-3-3-|-r-r-3-0-1-|-3-r-3-3-1-3-3-|-r-r-3-0-1-|
  1 & a 2 & 3 4   1 2 & 3 4   1 & a 2 & 3 4   1 2 & 3 4

|---------|---------|
|---------|---------|
|-r-e-s-t-|---------|
|---------|-r-r-r-1/| 
  1 2 3 4   1 2 3 4

By: Johari Taylor
E-mail: viking@powerup.com.au





Comments