Inxs - Just Keep Walking Chords & Tabs

 

Just Keep Walking Chords & Tabs

Inxs Chords & Tabs

Version: 1 Type: Tab 0 ratings
1 star 2 stars 3 stars 4 stars 5 stars
comments

Just Keep Walking Tab

Start:
Key: x = Mute
-|--------------|--------------|--------------|--------------|---------------|
-|--------------|--------------|--------------|--------------|---------------|
-|--------------|--------------|--------------|--------------|---------------|
-|-6----4----2--|--------------|-6----4----2--|--------------|-6----4----2---|
-|---7----5-----|--0-----------|---7----5-----|--4-----------|---7----5------|
-|--------------|--------------|--------------|--------------|---------------|
                 hold note                      hold note

-|--------------|--------------|--------------|-------------------------------|
-|--------------|--------------|--------------|-------------------------------|
-|--------------|--------------|--------------|-------------------------------|
-|--------------|-6----4----2--|--------------|-------------------------------|
-|--0-----------|---7----5-----|--4-----------|-------------------------------|
-|--------------|--------------|--------------|-------------------------------|
  hold note                     hold note

-|--------------|--------------|--------------|---------------|--------------|
-|--------------|--------------|--------------|---------------|--------------|
-|-9---8---9----|--------------|-9---8---9----|---------------|-9---8---9----|
-|--------------|------11---9--|--------------|-----11---9----|--------------|
-|--------------|-12-----------|--------------|-12------------|--------------|
-|--------------|--------------|--------------|---------------|--------------|


-|--------------|--------------|--------------|-------------------------------|
-|--------------|--------------|--------------|-------------------------------|
-|--------------|-9---8---9----|--------------|-------------------------------|
-|-----11---9---|--------------|-----11---9---|-------------------------------|
-|-12-----------|--------------|-12-----------|-------------------------------|
-|--------------|--------------|--------------|-------------------------------|


-|--------------|--------------|--------------|--------------|---------------|
-|--------------|--------------|--------------|--------------|---------------|
-|--------555-4-|--------555-4-|--------555-4-|--------555-4-|--------555-4--|
-|-2--x-2-555-4-|-2--x-2-555-4-|-2--x-2-555-4-|-2--x-2-555-4-|-2--x-2-555-4--|
-|-2--x-2-333-2-|-2--x-2-333-2-|-2--x-2-333-2-|-2--x-2-333-2-|-2--x-2-333-2--|
-|-0--x-0-------|-0--x-0-------|-0--x-0-------|-0--x-0-------|-0--x-0--------|


-|--------------|--------------|--------------|-------------------------------|
-|--------------|--------------|--------------|-------------------------------|
-|--------555-4-|--------555-4-|---------555-4|-------------------------------|
-|-2--x-2-555-4-|-2--x-2-555-4-|-2--x--2-555-4|-------------------------------|
-|-2--x-2-333-2-|-2--x-2-333-2-|-2--x--2-333-2|-------------------------------|
-|-0--x-0-------|-0--x-0-------|-0--x--0------|-------------------------------|


-|--------------|--------------|--------------|--------------|---------------|
-|--------------|--------------|--------------|--------------|---------------|
-|--------------|--------------|--------------|--------------|---------------|
-|--------------|--------------|--------------|--------------|---------------|
-|-3---2---3--0-|--------------|--------------|--------------|---------------|
-|--------------|--------------|--------------|--7--6---2--4-|--7--6---2--4--|


-|--------------|--------------|--------------|--------------|---------------|
-|--------------|--------------|--------------|--------------|---------------|
-|-9---8---9----|--------------|-9---8---9----|--------------|-9---8---9-----|
-|--------------|-----11---9---|--------------|-----11---9---|---------------|
-|--------------|-12-----------|--------------|-12-----------|---------------|
-|--------------|--------------|--------------|--------------|---------------|


-|--------------|--------------|--------------|-------------------------------|
-|--------------|--------------|--------------|-------------------------------|
-|--------------|-9---8---9----|--------------|-------------------------------|
-|-----11---9---|--------------|-----11---9---|-------------------------------|
-|-12-----------|--------------|-12-----------|-------------------------------|
-|--------------|--------------|--------------|-------------------------------|

[ Tab from: http://www.guitartabs.cc/tabs/i/inxs/just_keep_walking_tab.html ]
-|--------------|--------------|--------------|--------------|---------------|
-|--------------|--------------|--------------|--------------|---------------|
-|--------555-4-|---------555-2|---------555-4|---------555-4|---------555-4-|
-|-2--x-2-555-4-|-2--x--2-555-2|-2--x--2-555-4|-2--x--2-555-4|-2--x--2-555-4-|
-|-2--x-2-333-2-|-2--x--2-333-0|-2--x--2-333-2|-2--x--2-333-2|-2--x--2-333-2-|
-|-0--x-0-------|-0--x--0------|-0--x--0------|-0--x--0------|-0--x--0-------|


-|--------------|--------------|--------------|-------------------------------|
-|--------------|--------------|--------------|-------------------------------|
-|--------555-4-|--------555-4-|--------555-4-|-------------------------------|
-|-2--x-2-555-4-|-2--x-2-555-4-|-2--x-2-555-4-|-------------------------------|
-|-2--x-2-333-2-|-2--x-2-333-2-|-2--x-2-333-2-|-------------------------------|
-|-0--x-0-------|-0--x-0-------|-0--x-0-------|-------------------------------|


-|--------------|--------------|--------------|---------------|--------------|
-|--------------|---10-10b12---|------8-------|--15-15b17-----|---10-10b12---|
-|--------------|--------------|--7-7b9-------|---------------|--------------|
-|--------------|--------------|--------------|---------------|--------------|
-|--3--2---3--0-|--------------|--------------|---------------|--------------|
-|--------------|--------------|--------------|---------------|--------------|
                        hold note      hold note       hold note    hold note

-|--------------|--------------|----------------------------------------------|
-|--------------|--------------|----------------------------------------------|
-|--------------|--------------|----------------------------------------------|
-|--------------|--------------|----------------------------------------------|
-|--------------|--------------|----------------------------------------------|
-|-7--6---2--4--|-7--6---2--4--|----------------------------------------------|


-|--------------|--------------|---------------|---------------|-------------|
-|--------------|--------------|---------------|---------------|-------------|
-|-9---8---9----|--------------|-9---8---9-----|---------------|-9---8---9---|
-|--------------|-----11---9---|---------------|-----11---9----|-------------|
-|--------------|-12-----------|---------------|-12------------|-------------|
-|--------------|--------------|---------------|---------------|-------------|


-|--------------|--------------|---------------|------------------------------|
-|--------------|--------------|---------------|------------------------------|
-|--------------|-9---8---9----|---------------|------------------------------|
-|-----11---9---|--------------|-----11---9----|------------------------------|
-|-12-----------|--------------|-12------------|------------------------------|
-|--------------|--------------|---------------|------------------------------|


-|--------------|--------------|--------------|--------------|---------------|
-|--------------|--------------|--------------|--------------|---------------|
-|--------555-4-|---------555-2|---------555-4|---------555-4|---------555-4-|
-|-2--x-2-555-4-|-2--x--2-555-2|-2--x--2-555-4|-2--x--2-555-4|-2--x--2-555-4-|
-|-2--x-2-333-2-|-2--x--2-333-0|-2--x--2-333-2|-2--x--2-333-2|-2--x--2-333-2-|
-|-0--x-0-------|-0--x--0------|-0--x--0------|-0--x--0------|-0--x--0-------|


-|--------------|--------------|--------------|-------------------------------|
-|--------------|--------------|--------------|-------------------------------|
-|--------555-4-|--------555-4-|--------555-4-|-------------------------------|
-|-2--x-2-555-4-|-2--x-2-555-4-|-2--x-2-555-4-|-------------------------------|
-|-2--x-2-333-2-|-2--x-2-333-2-|-2--x-2-333-2-|-------------------------------|
-|-0--x-0-------|-0--x-0-------|-0--x-0-------|-------------------------------|


-|--------------|--------------|---------------|-4-|--------------------------|
-|--------------|--------------|---------------|-5-|--------------------------|
-|--------------|--------------|---------------|---|--------------------------|
-|--------------|--------------|---------------|---|--------------------------|
-|-3--2--3--0---|-3--2--3--0---|-3---2--3--0---|---|--------------------------|
-|--------------|--------------|---------------|---|--------------------------|
                                                Hold note with ecko effect
By Dj Isosis
I learnt this and was confused by these tabs, so i made some corrections. To help
learn the tab and listen to the track. You will pick it up within seconds and learn
the song alot better that way.
Comments