Inxs - By My Side Intro Chords & Tabs

 

By My Side Intro Chords & Tabs

Inxs Chords & Tabs

Version: 1 Type: Chords 0 ratings
1 star 2 stars 3 stars 4 stars 5 stars
comments

By My Side Intro Chords

   
#----------------------------------PLEASE NOTE---------------------------------#
#This file is the author's own work and represents their interpretation of the #
#song. You may only use this file for private study, scholarship, or research. #
#------------------------------------------------------------------------------##
Received: from localhost.nevada.edu (localhost.nevada.edu [127.0.0.1]) by redrock.nevada.edu (8.6.4/8.6.4) with SMTP id VAA22808; Tue, 7 Dec 1993 21:01:55 -0800
Message-Id: 
X-Authentication-Warning: redrock.nevada.edu: Host localhost.nevada.edu didn't use HELO protocol
To: jamesb
cc: youtwo
Subject: CRD:By My Side, INXS
Date: Tue, 07 Dec 93 21:01:53 -0800
From: Abu 
By My Side, INXS, from the album 'X'
Here's my take on this song.  Any corrections or improvements are
welcomed and encouraged.
Marc
(youtwo@redrock.nevada.edu)

Intro: G G D Em D Em A (repeat twice)
intro pseudo tab:
 G  G  D  Em D  Em A
-3--3--2--0--------------||
-0--0--3--0--3--0--2-----||
-0--0--2--0--2--0--2-----||(repeat twice)
-------------0--2--2-----||
-------------------------||
-------------------------||

I like to play the stanzas going up and down on the chords:
 Bm          D
-------2-----------2------
-----3---3-------3---3----
---4-------4---2-------2--
-4-----------0------------
--------------------------
--------------------------

	
[ Tab from: http://www.guitartabs.cc/tabs/i/inxs/by_my_side_intro_crd.html ]
Comments