Invein - Bend Chords & Tabs

 

Bend Chords & Tabs

Invein Chords & Tabs

Version: 1 Type: Tab 0 ratings
1 star 2 stars 3 stars 4 stars 5 stars
comments

Bend Tab

   
Song: Bend
Band: Invein (An Unrecognized Garage Band in Minnesota)

I'm the lead guitar and I wrote this. PLEASE RATE IT!

[PM]: Palm Mute
/: Slide up(down)

Tuning: Bb, F, Bb, Eb, G, C

Intro
/-----------------------------------
/-----------------------------------
/-----------------------------------   X2
/-----------------------------------
/-0000-8-000000-8--0000-8-000000-1--
/-0000-8-000000-8--0000-8-000000-1--


Chorus
/--------------------------------------
/--------------------------------------
/--------------------------------------   X4
/--------------------------------------
/-0--1-2-3-0--1-2-3-0--1-2-3-0--1-1-11-
/-0--1-2-3-0--1-2-3-0--1-2-3-0--1-1-11-


Verse
/--------------------------------------
/--------------------------------------
/--------------------------------------    X2
/-0--1-2-3-0--1-2-3-0--1-2-3-0--1-1-11-
/-0--1-2-3-0--1-2-3-0--1-2-3-0--1-1-11-
/--------------------------------(1-11)(2nd time)


Chorus
/--------------------------------------
/--------------------------------------
/--------------------------------------   X2
/--------------------------------------
/-0--1-2-3-0--1-2-3-0--1-2-3-0--1-1-11-
/-0--1-2-3-0--1-2-3-0--1-2-3-0--1-1-11-

[ Tab from: http://www.guitartabs.cc/tabs/i/invein/bend_tab.html ]
Verse
/--------------------------------------
/--------------------------------------
/--------------------------------------    X2
/-0--1-2-3-0--1-2-3-0--1-2-3-0--1-1-11-
/-0--1-2-3-0--1-2-3-0--1-2-3-0--1-1-11-
/--------------------------------------


/--------------------------------------
/--------------------------------------
/--------------------------------------
/-3--2-1-0-3--2-1-0-3--2-1-0-3--1-1-11-    X2
/-3--2-1-0-3--2-1-0-3--2-1-0-3--1-1-11-
/--------------------------------(1-11)(2nd time)


Chorus
/--------------------------------------
/--------------------------------------
/--------------------------------------   X2
/--------------------------------------
/-0--1-2-3-0--1-2-3-0--1-2-3-0--1-1-11-
/-0--1-2-3-0--1-2-3-0--1-2-3-0--1-1-11-


Bridge
/-------------
/-------------
/-------------    X8
/-6---0-5---0-
/-6---0-5---0-
/-6---0-5---0-

/--------------
/--------------
/--------------    X4
/--------------
/-2-[0000]-1-1-
/-2-[0000]-1-1-
     [PM]

Chorus
/--------------------------------------
/--------------------------------------
/--------------------------------------   X3
/--------------------------------------
/-0--1-2-3-0--1-2-3-0--1-2-3-0--1-1-11-
/-0--1-2-3-0--1-2-3-0--1-2-3-0--1-1-11-


Outro/Chorus
/-----------------------------------
/-----------------------------------
/-----------------------------------
/-----------------------------------
/-0--1-2-3-0--1-2-3-0--1-2-3-0--1-1-
/-0--1-2-3-0--1-2-3-0--1-2-3-0--1-1-
Comments