Intwine - Happy Chords & Tabs

 

Happy Chords & Tabs

Intwine Chords & Tabs

Version: 1 Type: Tab 0 ratings
1 star 2 stars 3 stars 4 stars 5 stars
comments

Happy Tab

This tab is from the song Happy from the great Dutch group Intwine!
Wanna know more about them? Check out their website: www.intwine.nl !!!

Happy?

Verse 1
isnít it strange that the stars donít shine no more now since youíre gone
e|-------------------------------------------|
B|--1--1----0--0----1--1----1--1-------------|
G|--0--0----0--0----2--2----2--2-------------|
D|--2--2----2--2----2--2----3--3-------------|
A|--3--3----3--3----0--0----3--3-------------|
E|-------------------------------------------|
isnít it strange that we canít look back and see just what went wrong

e|-------------------------------------------|
B|--1--1----0--0----1--1----3--3-------------|
G|--0--0----0--0----2--2----0--0-------------|
D|--2--2----2--2----2--2----0--0-------------|
A|--3--3----3--3----0--0----2--2-------------|
E|-------------------------------------------|

Bridge
I wanna know now where we are, should i pretend and let things be
e|----------------------------------------0-------|
B|---1-1--1-----1-1--1----3-3-3-------------1-----|
G|---0-0----2---2-2---2---0-0---0-----2-------2---|
D|-----2----------2-------0-0-----0-----3-------3-|
A|-3---3-3----0---0-0---2---2-------3-------------|
E|------------------------------------------------|
and knowing what youíve done, could you come face to face with me
e|----------------------------------0-----(0)-----|
B|---1-1--1-----1-1--1----3-3--------1----(1)-----|
G|---0-0----2---2-2---2---0-0---------2---(2)-----|
D|-----2----------2-------0-0----------3--(3)-----|
A|-3---3-3----0---0-0---2---2-----------3-(3)-----|
E|------------------------------------------------|
Verse 2
isnít it strange that you told me one thing and suddenly changed your mind

e|-------------------------------------------|
B|--1--1----0--0----1--1----1--1-------------|
G|--0--0----0--0----2--2----2--2-------------|
D|--2--2----2--2----2--2----3--3-------------|
A|--3--3----3--3----0--0----3--3-------------|
E|-------------------------------------------|
isnít it strange that youíd come here for me turn away and leave me behind

e|-------------------------------------------|
B|--1--1----0--0----1--1----3---3------------|
G|--0--0----0--0----0--2----0h2-0------------|
D|--2--2----2--2----2--2----0---0------------|
A|--3--3----3--3----0--0----2---2------------|
E|-------------------------------------------|
Pre-chorus 
now it feels like iím drowning, feels like iím drowning without you

e|---------------------------------------0-----|
B|---1-1--1-0--3-3--3-----0------1---------3---|
G|---2-2-------0-0---0-0---0------2----------4-|
D|-----2-------0-0------2---2------------------|
A|-0---0-0---2---2-2---------2-3---3-3\5-------|
E|--------------------0--0---------------------|
i know the feeling, cause iíve felt this all before

e|---------------------------------------0-----|
B|---1-1--1-0--3-3--3-----0------1---------3---|
G|---2-2-------0-0---0-0---0------2----------4-|
D|-----2-------0-0------2---2------------------|
A|-0---0-0---2---2-2---------2-3---3-3\5-------|
E|--------------------0--0---------------------|

Chorus 
i hope you donít feel just like me, i hope you donít feel just like me

e|---------------3-3-3-3-3-3---------------3-3-3-3-3-3--|
B|--1-1-1-1-1-1--3-3-3-3-3-3--1-1-1-1-1-1--3-3-3-3-3-3--|
G|--2-2-2-2-2-2--0-0-0-0-0-0--2-2-2-2-2-2--0-0-0-0-0-0--|
D|--2-2-2-2-2-2--0-0-0-0-0-0--2-2-2-2-2-2--0-0-0-0-0-0--|
A|--0-0-0-0-0-0--2-2-2-2-2-2--0-0-0-0-0-0--2-2-2-2-2-2--|
E|---------------3-3-3-3-3-3---------------3-3-3-3-3-3--|
i hope you donít feel just like me, i hope youíre happy

e|--0-0-0-0-0-0--3-3-3-3-3-3--0--0-0-0--0-0-0--0-0-0----|
B|--1-1-1-1-1-1--3-3-3-3-3-3--0--0-0-0--0-0-0--0-0-0----|
G|--0-0-0-0-0-0--0-0-0-0-0-0--6--6-6-6--6-6-6--6-6-6----|
D|--3-3-3-3-3-3--x-x-x-x-x-x--7--7-7-7--7-7-7--7-7-7----|
A|---------------2-2-2-2-2-2--0--0-0-0--0-0-0--0-0-0----|
E|---------------0-0-0-0-0-0----------------------------|
Verse 3
isnít it strange that the world seems to turn away when i try to explain

e|-------------------------------------------|
B|--1--1----0--0----1--1----1--1-------------|
G|--0--0----0--0----2--2----2--2-------------|
D|--2--2----2--2----2--2----3--3-------------|
A|--3--3----3--3----0--0----3--3-------------|
E|-------------------------------------------|
why itís so strange that two can be as one yet not the same

e|-------------------------------------------|
B|--1--1----0--0----1--1----3---3------------|
G|--0--0----0--0----0--2----0h2-0------------|
D|--2--2----2--2----2--2----0---0------------|
A|--3--3----3--3----0--0----2---2------------|
E|-------------------------------------------|
[ Tab from: http://www.guitartabs.cc/tabs/i/intwine/happy_tab.html ]
Pre-chorus 
and it feels like iím drowning, feels like iím drowning without you

e|---------------------------------------0-----|
B|---1-1--1-0--3-3--3-----0------1---------3---|
G|---2-2-------0-0---0-0---0------2----------4-|
D|-----2-------0-0------2---2------------------|
A|-0---0-0---2---2-2---------2-3---3-3\5-------|
E|--------------------0--0---------------------|
i know the feeling, cause iíve felt this all before

e|---------------------------------------0-----|
B|---1-1--1-0--3-3--3-----0------1---------3---|
G|---2-2-------0-0---0-0---0------2----------4-|
D|-----2-------0-0------2---2------------------|
A|-0---0-0---2---2-2---------2-3---3-3\5-------|
E|--------------------0--0---------------------|
and it feels like iím dying, feels like iím dying now i know the truth

e|---------------------------------------0-----|
B|---1-1--1-0--3-3--3-----0------1---------3---|
G|---2-2-------0-0---0-0---0------2----------4-|
D|-----2-------0-0------2---2------------------|
A|-0---0-0---2---2-2---------2-3---3-3\5-------|
E|--------------------0--0---------------------|
Chorus 
i hope you donít feel just like me, i hope you donít feel just like me

e|---------------3-3-3-3-3-3---------------3-3-3-3-3-3--|
B|--1-1-1-1-1-1--3-3-3-3-3-3--1-1-1-1-1-1--3-3-3-3-3-3--|
G|--2-2-2-2-2-2--0-0-0-0-0-0--2-2-2-2-2-2--0-0-0-0-0-0--|
D|--2-2-2-2-2-2--0-0-0-0-0-0--2-2-2-2-2-2--0-0-0-0-0-0--|
A|--0-0-0-0-0-0--2-2-2-2-2-2--0-0-0-0-0-0--2-2-2-2-2-2--|
E|---------------3-3-3-3-3-3---------------3-3-3-3-3-3--|
i hope you donít feel just like me, i hope youíre happy 
[!!DROPPED D!!MUTED + DISTORTION!!]
e|--0-0-0-0-0-0--3-3-3-3-3-3--|e|-----------------------|
B|--1-1-1-1-1-1--3-3-3-3-3-3--|B|-----------------------|
G|--0-0-0-0-0-0--0-0-0-0-0-0--|G|-----------------------|
D|--3-3-3-3-3-3--x-x-x-x-x-x--|D|--9999999999999--9--9--|
A|---------------2-2-2-2-2-2--|A|--7777777777777--7--7--|
E|---------------0-0-0-0-0-0--|D|--7777777777777--7--7--|
donít feel just like me, i hope you donít feel just like me

e|-----------------------------------------------|
B|-----------------------------------------------|
G|-----------------------------------------------|
D|--7--777777--5--555555--5--55-7777--5--555555--|
A|--5--555555--2--222222--3--33-5555--3--333333--|
D|--5--555555--2--222222--3--33-5555--3--333333--|
i hope you donít feel just like me, i hope youíre happy

e|-------------------------------|
B|-------------------------------|
G|-------------------------------|
D|--5--555555--9999999999999999--|
A|--2--222222--7777777777777777--|
D|--2--222222--7777777777777777--|
donít feel just like me, i hope you donít feel just like me

e|----------------------------------------------|
B|----------------------------------------------|
G|----------------------------------------------|
D|--9--999999--7--777777--9--999999--7--777777--|
A|--7--777777--5--555555--7--777777--5--555555--|
D|--7--777777--5--555555--7--777777--5--555555--|
fuck i hope you feel much worse than me, maybe not so happy

e|------------------------------------------|
B|------------------------------------------|
G|------------------------------------------|
D|--5--555555--5--555555--9999999999999999--|
A|--3--333333--2--222222--7777777777777777--|
D|--3--333333--2--222222--7777777777777777--|
not so happy, yeah, not so happy, yeah

e|----------------------------------------------|
B|----------------------------------------------|
G|----------------------------------------------|
D|--9--999999--7--777777--9--999999--7--777777--|
A|--7--777777--5--555555--7--777777--5--555555--|
D|--7--777777--5--555555--7--777777--5--555555--|

not so happy, welcome to my world

e|------------------------------------------|
B|------------------------------------------|
G|------------------------------------------|
D|--5--555555--5--555555--9999999999999999--|
A|--3--333333--2--222222--7777777777777777--|
D|--3--333333--2--222222--7777777777777777--|
not so happy, yeah, not so happy, yeah

e|----------------------------------------------|
B|----------------------------------------------|
G|----------------------------------------------|
D|--9--999999--7--777777--9--999999--7--777777--|
A|--7--777777--5--555555--7--777777--5--555555--|
D|--7--777777--5--555555--7--777777--5--555555--|
not so happy, welcome to my world

e|-----------------------------------0--------|
B|-----------------------------5-----0--------|
G|-------------------6h7---7-----7---6--------|
D|--5--555555--5-----7---7---7-----7-7--------|
A|--3--333333--2------------------------------|
D|--3--333333--2------------------------------|
Tabs provided by J.Streefkerk
Intwine
Comments