Into Eternity - Selling God Chords & Tabs

 

Selling God Chords & Tabs

Into Eternity Chords & Tabs

Version: 1 Type: Tab 0 ratings
1 star 2 stars 3 stars 4 stars 5 stars
comments

Selling God Tab

   
#----------------------------------PLEASE NOTE---------------------------------#
#This file is the author's own work and represents their interpretation of the #
#song. You may only use this file for private study, scholarship, or research. #
#------------------------------------------------------------------------------##

                                   SELLING GOD
                          As recorded by Into Eternity
                     (From the Album DEAD OR DREAMING)

Transcribed by J. Moroney

Gtr I (C F A# D# G C) - 'Main Guitar'

  Q=165
  Gtr I

"SELLING YOUR GOD..."

  E  S S S S S S E  E  S S S S   S S S S S S S S E  E  E  E
|------------------------------|-------------------------------|
|------------------------------|-------------------------------|
|------------------------------|-------------------------------|
|------------------------------|-------------------------------|
|-2--------------3--2----------|-----------------3--7--3--5----|
|-0--0-0-0-0-0-0-1--0--0-0-0-0-|-0-0-0-0-0-0-0-0-1--5--1--3----|


  E S S S S S S E E S S S S   S S S S S S S S S S S S E E
|---------------------------|--------------------------------|
|---------------------------|--------------------------------|
|---------------------------|--------------------------------|
|---------------------------|--------------------------------|
|-2-------------3-2---------|-9-9-9-9---------7-7-7-7-5-5----|
|-0-0-0-0-0-0-0-1-0-0-0-0-0-|---------5-5-5-5---------3-3----|


  E S S S S S S E E S S S S   S S S S S S S S E E E E
|---------------------------|----------------------------|
|---------------------------|----------------------------|
|---------------------------|----------------------------|
|---------------------------|----------------------------|
|-2-------------3-2---------|-----------------3-7-3-5----|
|-0-0-0-0-0-0-0-1-0-0-0-0-0-|-0-0-0-0-0-0-0-0-1-5-1-3----|


  E S S S S S S E E S S S S   S S S S S S S S S S S S E E
|---------------------------|--------------------------------|
|---------------------------|--------------------------------|
|---------------------------|--------------------------------|
|---------------------------|--------------------------------|
|-2-------------3-2---------|-1-1-1-1---------0-0-0-0-3-3----|
|-0-0-0-0-0-0-0-1-0-0-0-0-0-|---------3-3-3-3---------1-1----|


TRANSITION

  E E E E E E E E   E E E E E E E E
|-----------------|--------------------|
|-----------------|--------------------|
|-----------------|--------------------|
|-----------------|--------------------|
|-2-------3-2-----|---------3-6-5-3----|
|-0-0-0-0-1-0-0-0-|-0-0-0-0-1-4-3-1----|


  E E E E E E E E   S S S S S S S S S S S S E E
|-----------------|--------------------------------|
|-----------------|--------------------------------|
|-----------------|--------------------------------|
|-----------------|--------------------------------|
|-2-------3-2-----|-9-9-9-9---------7-7-7-7-3-2----|
|-0-0-0-0-1-0-0-0-|---------5-5-5-5----------------|


  E E E E E E E E   E E E E E E E E
|-----------------|--------------------|
|-----------------|--------------------|
|-----------------|--------------------|
|-----------------|--------------------|
|-2-------3-2-----|---------3-6-5-3----|
|-0-0-0-0-1-0-0-0-|-0-0-0-0-1-4-3-1----|


  E E E E E E E E   S S S S S S S S S S S S E E
|-----------------|--------------------------------|
|-----------------|--------------------------------|
|-----------------|--------------------------------|
|-----------------|--------------------------------|
|-2-------3-2-----|-1-1-1-1---------0-0-0-0-3-3----|
|-0-0-0-0-1-0-0-0-|---------3-3-3-3---------1-1----|


"SINNERS SELLING..."

  E S S S S S S E E S S S S   S S S S S S S S E E E E
|---------------------------|----------------------------|
|---------------------------|----------------------------|
|---------------------------|----------------------------|
|---------------------------|----------------------------|
|-2-------------3-2---------|-----------------3-7-3-5----|
|-0-0-0-0-0-0-0-1-0-0-0-0-0-|-0-0-0-0-0-0-0-0-1-5-1-3----|


  E S S S S S S E E S S S S   S S S S S S S S S S S S E E
|---------------------------|--------------------------------|
|---------------------------|--------------------------------|
|---------------------------|--------------------------------|
|---------------------------|--------------------------------|
|-2-------------3-2---------|-9-9-9-9---------7-7-7-7-5-5----|
|-0-0-0-0-0-0-0-1-0-0-0-0-0-|---------5-5-5-5---------3-3----|


  E S S S S S S E E S S S S   S S S S S S S S E E E E
|---------------------------|----------------------------|
|---------------------------|----------------------------|
|---------------------------|----------------------------|
|---------------------------|----------------------------|
|-2-------------3-2---------|-----------------3-7-3-5----|
|-0-0-0-0-0-0-0-1-0-0-0-0-0-|-0-0-0-0-0-0-0-0-1-5-1-3----|


  E S S S S S S E E S S S S   S S S S S S S S S S S S E E
|---------------------------|--------------------------------|
|---------------------------|--------------------------------|
|---------------------------|--------------------------------|
|---------------------------|--------------------------------|
|-2-------------3-2---------|-1-1-1-1---------0-0-0-0-3-3----|
|-0-0-0-0-0-0-0-1-0-0-0-0-0-|---------3-3-3-3---------1-1----|


"SELL...GOD..."

  |-3-| |-3-| |-3-| |-3-|   |-3-| |-3-| |-3-|
  E E E E E E E E E E E E   E E E E E E E E E Q
|-------------------------|------------------------|
|-------------------------|------------------------|
|-------------------------|------------------------|
|-------------------------|------------------------|
|-------------------------|-------------------3----|
|-3-2-0-1-0-0-3-2-0-1-0-0-|-3-2-0-1-0-0-3-2-0-1----|


  |-3-| |-3-| |-3-| |-3-|   |-3-| |-3-| |-3-|
  E E E E E E E E E E E E   E E E E E E E E E Q
|-------------------------|------------------------|
|-------------------------|------------------------|
|-------------------------|------------------------|
|-------------------------|------------------------|
|-------------------------|-------------------3----|
|-3-2-0-1-0-0-3-2-0-1-0-0-|-3-2-0-1-0-0-3-2-0-1----|


  |-3-| |-3-| |-3-| |-3-|   |-3-| |-3-| |-3-|
  E E E E E E E E E E E E   E E E E E E E E E Q
|-------------------------|------------------------|
|-------------------------|------------------------|
|-------------------------|------------------------|
|-------------------------|------------------------|
|-------------------------|-------------------3----|
|-3-2-0-1-0-0-3-2-0-1-0-0-|-3-2-0-1-0-0-3-2-0-1----|


  |-3-| |-3-| |-3-| |-3-|   |-3-| |-3-| |-3-|
  E E E E E E E E E E E E   E E E E E E E E E Q
|-------------------------|------------------------|
|-------------------------|------------------------|
|-------------------------|------------------------|
|-------------------------|------------------------|
|-------------------------|-------------------3----|
|-3-2-0-1-0-0-3-2-0-1-0-0-|-3-2-0-1-0-0-3-2-0-1----|


  E S S S S S S E E S S S S   S S S S S S S S E E E E
|---------------------------|----------------------------|
|---------------------------|----------------------------|
|---------------------------|----------------------------|
|---------------------------|----------------------------|
|-2-------------3-2---------|-----------------3-6-5-3----|
|-0-0-0-0-0-0-0-1-0-0-0-0-0-|-0-0-0-0-0-0-0-0-1-4-3-1----|


  E S S S S S S E E S S S S   S S S S S S S S S S S S E E
|---------------------------|--------------------------------|
|---------------------------|--------------------------------|
|---------------------------|--------------------------------|
|---------------------------|--------------------------------|
|-2-------------3-2---------|-9-9-9-9---------7-7-7-7-5-5----|
|-0-0-0-0-0-0-0-1-0-0-0-0-0-|---------5-5-5-5---------3-3----|


  q  H    Q
|--------------|
|--------------|
|--------------|
|--------------|
|-2------------|
|-0------------|


"HIDDEN LYRICS??!  WHY DON'T YOU PRINT THEM YOURSELF,..."

  E E E E E E E E   E E E E E E E E
|-----------------|--------------------|
|-----------------|--------------------|
|-----------------|--------------------|
|-----------------|--------------------|
|-2-------3-2-----|---------3-6-5-3----|
|-0-0-0-0-1-0-0-0-|-0-0-0-0-1-4-3-1----|


  E E E E E E E E   S S S S S S S S S S S S E E
|-----------------|--------------------------------|
|-----------------|--------------------------------|
|-----------------|--------------------------------|
|-----------------|-------------------------2-2----|
|-2-------3-2-----|-9-9-9-9---------7-7-7-7-3-3----|
|-0-0-0-0-1-0-0-0-|---------5-5-5-5----------------|


  E E E E E E E E   E E E E E E E E
|-----------------|--------------------|
|-----------------|--------------------|
|-----------------|--------------------|
|-----------------|--------------------|
|-2-------3-2-----|---------3-6-5-3----|
|-0-0-0-0-1-0-0-0-|-0-0-0-0-1-4-3-1----|


                                            |-3-|
  E E E E E E E E   S S S S S S S S S S S S E E E
|-----------------|----------------------------------|
|-----------------|----------------------------------|
|-----------------|----------------------------------|
|-----------------|----------------------------------|
|-2-------3-2-----|-1-1-1-1---------0-0-0-0----------|
|-0-0-0-0-1-0-0-0-|---------3-3-3-3---------1-1-1----|


"SELL..."

  |-3-| |-3-| |-3-| |-3-|   |-3-| |-3-| |-3-|
  E E E E E E E E E E E E   E E E E E E E E E Q
|-------------------------|------------------------|
|-------------------------|------------------------|
|-------------------------|------------------------|
|-------------------------|------------------------|
|-------------------------|-------------------3----|
|-3-2-0-1-0-0-3-2-0-1-0-0-|-3-2-0-1-0-0-3-2-0-1----|


  |-3-| |-3-| |-3-| |-3-|   |-3-| |-3-| |-3-|
  E E E E E E E E E E E E   E E E E E E E E E Q
|-------------------------|------------------------|
|-------------------------|------------------------|
|-------------------------|------------------------|
|-------------------------|------------------------|
|-------------------------|-------------------3----|
|-3-2-0-1-0-0-3-2-0-1-0-0-|-3-2-0-1-0-0-3-2-0-1----|


  |-3-| |-3-| |-3-| |-3-|   |-3-| |-3-| |-3-|
  E E E E E E E E E E E E   E E E E E E E E E Q
|-------------------------|------------------------|
|-------------------------|------------------------|
|-------------------------|------------------------|
|-------------------------|------------------------|
|-------------------------|-------------------3----|
|-3-2-0-1-0-0-3-2-0-1-0-0-|-3-2-0-1-0-0-3-2-0-1----|


  |-3-| |-3-| |-3-| |-3-|   |-3-| |-3-| |-3-|
  E E E E E E E E E E E E   E E E E E E E E E Q
|-------------------------|------------------------|
|-------------------------|------------------------|
|-------------------------|------------------------|
|-------------------------|------------------------|
|-------------------------|-------------------3----|
|-3-2-0-1-0-0-3-2-0-1-0-0-|-3-2-0-1-0-0-3-2-0-1----|


[LEAD BREAK]

  W          W          W
|----------|----------|------|
|----------|----------|------|
|----------|----------|------|
|-4--------|-5--------|-7----|
|-2--------|-3--------|-5----|
|-2--------|-3--------|-5----|

[ Tab from: http://www.guitartabs.cc/tabs/i/into_eternity/selling_god_tab.html ]
  |-3-| |-3-| |-3-| |-3-|   |-3-| |-3-| |-3-|
  E E E E E E E E E E E E   E E E E E E E E E Q
|-------------------------|------------------------|
|-------------------------|------------------------|
|-------------------------|------------------------|
|-------------------------|------------------------|
|-------------------------|-------------------3----|
|-3-2-0-1-0-0-3-2-0-1-0-0-|-3-2-0-1-0-0-3-2-0-1----|


  |-3-| |-3-| |-3-| |-3-|   |-3-| |-3-| |-3-|
  E E E E E E E E E E E E   E E E E E E E E E Q
|-------------------------|------------------------|
|-------------------------|------------------------|
|-------------------------|------------------------|
|-------------------------|------------------------|
|-------------------------|-------------------3----|
|-3-2-0-1-0-0-3-2-0-1-0-0-|-3-2-0-1-0-0-3-2-0-1----|


  W          W          W
|----------|----------|------|
|----------|----------|------|
|----------|----------|------|
|-4--------|-5--------|-7----|
|-2--------|-3--------|-5----|
|-2--------|-3--------|-5----|


  |-3-| |-3-| |-3-| |-3-|   |-3-| |-3-| |-3-|
  E E E E E E E E E E E E   E E E E E E E E E Q
|-------------------------|------------------------|
|-------------------------|------------------------|
|-------------------------|------------------------|
|-------------------------|------------------------|
|-------------------------|-------------------3----|
|-3-2-0-1-0-0-3-2-0-1-0-0-|-3-2-0-1-0-0-3-2-0-1----|


  |-3-| |-3-| |-3-| |-3-|   |-3-| |-3-| |-3-|
  E E E E E E E E E E E E   E E E E E E E E E Q
|-------------------------|------------------------|
|-------------------------|------------------------|
|-------------------------|------------------------|
|-------------------------|------------------------|
|-------------------------|-------------------3----|
|-3-2-0-1-0-0-3-2-0-1-0-0-|-3-2-0-1-0-0-3-2-0-1----|


"FOLLOW THE LORD WILL SET YOU FREE..."

  W          W          W
|----------|----------|------|
|----------|----------|------|
|----------|----------|------|
|-4--------|-5--------|-7----|
|-2--------|-3--------|-5----|
|-2--------|-3--------|-5----|


  |-3-| |-3-| |-3-| |-3-|   |-3-| |-3-| |-3-|
  E E E E E E E E E E E E   E E E E E E E E E Q
|-------------------------|------------------------|
|-------------------------|------------------------|
|-------------------------|------------------------|
|-------------------------|------------------------|
|-------------------------|-------------------3----|
|-3-2-0-1-0-0-3-2-0-1-0-0-|-3-2-0-1-0-0-3-2-0-1----|


  |-3-| |-3-| |-3-| |-3-|   |-3-| |-3-| |-3-|
  E E E E E E E E E E E E   E E E E E E E E E Q
|-------------------------|------------------------|
|-------------------------|------------------------|
|-------------------------|------------------------|
|-------------------------|------------------------|
|-------------------------|-------------------3----|
|-3-2-0-1-0-0-3-2-0-1-0-0-|-3-2-0-1-0-0-3-2-0-1----|


  W          W          W
|----------|----------|------|
|----------|----------|------|
|----------|----------|------|
|-4--------|-5--------|-7----|
|-2--------|-3--------|-5----|
|-2--------|-3--------|-5----|


  |-3-| |-3-| |-3-| |-3-|   |-3-| |-3-| |-3-|
  E E E E E E E E E E E E   E E E E E E E E E Q
|-------------------------|------------------------|
|-------------------------|------------------------|
|-------------------------|------------------------|
|-------------------------|------------------------|
|-------------------------|-------------------3----|
|-3-2-0-1-0-0-3-2-0-1-0-0-|-3-2-0-1-0-0-3-2-0-1----|


  |-3-| |-3-| |-3-| |-3-|   |-3-| |-3-| |-3-|
  E E E E E E E E E E E E   E E E E E E E E E Q
|-------------------------|------------------------|
|-------------------------|------------------------|
|-------------------------|------------------------|
|-------------------------|------------------------|
|-------------------------|-------------------3----|
|-3-2-0-1-0-0-3-2-0-1-0-0-|-3-2-0-1-0-0-3-2-0-1----|


  W          W          W
|----------|----------|------|
|----------|----------|------|
|----------|----------|------|
|-4--------|-5--------|-7----|
|-2--------|-3--------|-5----|
|-2--------|-3--------|-5----|


  |-3-| |-3-| |-3-| |-3-|   |-3-| |-3-| |-3-|
  E E E E E E E E E E E E   E E E E E E E E E Q
|-------------------------|------------------------|
|-------------------------|------------------------|
|-------------------------|------------------------|
|-------------------------|------------------------|
|-------------------------|-------------------3----|
|-3-2-0-1-0-0-3-2-0-1-0-0-|-3-2-0-1-0-0-3-2-0-1----|


  |-3-| |-3-| |-3-| |-3-|   |-3-| |-3-| |-3-|
  E E E E E E E E E E E E   E E E E E E E E E Q
|-------------------------|------------------------|
|-------------------------|------------------------|
|-------------------------|------------------------|
|-------------------------|------------------------|
|-------------------------|-------------------3----|
|-3-2-0-1-0-0-3-2-0-1-0-0-|-3-2-0-1-0-0-3-2-0-1----|


  W          W          W
|----------|----------|------|
|----------|----------|------|
|----------|----------|------|
|-4--------|-5--------|-7----|
|-2--------|-3--------|-5----|
|-2--------|-3--------|-5----|


  |-3-| |-3-| |-3-|       |-3-| |-3-|
  E E E E E E E E E q     E E E E E E q Q
|-----------------------|--------------------|
|-----------------------|--------------------|
|-----------------------|--------------------|
|-----------------------|--------------------|
|-2-2-2-2-2-2-2-2-2-2---|-2-2-2-2-2-2-2------|
|-0-0-0-0-0-0-0-0-0-0---|-0-0-0-0-0-0-0------|


"SELL GOD!!!!!!!!!! !!!!!!!"

Duration Legend
---------------
W - whole; H - half; Q - quarter; E - 8th; S - 16th; T - 32nd; X - 64th; a - acciaccatura
+ - note tied to previous; . - note dotted; .. - note double dotted
Uncapitalized letters represent notes that are staccato (1/2 duration)
Irregular groupings are notated above the duration line
Duration letters will always appear directly above the note/fret number it represents the
duration for.  Duration letters with no fret number below them represent rests.  Multi-
bar rests are notated in the form Wxn, where n is the number of bars to rest for.  Low
melody durations appear below the staff

Tablature Legend
----------------
 h   - hammer-on
 p   - pull-off
 b   - bend
 pb  - pre-bend
 r   - bend release (if no number after the r, then release immediately)
 /\  - slide into or out of (from/to "nowhere")
 s   - legato slide
 S   - shift slide
  - natural harmonic
[n]  - artificial harmonic
n(n) - tapped harmonic
 ~   - vibrato
 tr  - trill
 T   - tap
 TP  - trem. picking
 PM  - palm muting
\n/  - tremolo bar dip; n = amount to dip
 \n  - tremolo bar down
 n/  - tremolo bar up
/n\  - tremolo bar inverted dip
 =   - hold bend; also acts as connecting device for hammers/pulls
   - volume swell (louder/softer)
 x   - on rhythm slash represents muted slash
 o   - on rhythm slash represents single note slash

Misc Legend
-----------
 |  - bar
||  - double bar
||o - repeat start
o|| - repeat end
*|  - double bar (ending)
 :  - bar (freetime)
 $  - Segno
 &  - Coda
Tempo markers -  = BPM(8/16=s8/s16), where s8 = swing 8ths, s16 = swing 16ths


***************************************************************************************
* Generated using Power Tab Editor by Brad Larsen - http://powertab.guitarnetwork.org *
***************************************************************************************



                             SELLING GOD (Lead Break)
                          As recorded by Into Eternity


Gtr I (C F A# D# G C) - 'Lead Break'

  Q=165
  Gtr I
  Wx53
|---------------------|----|
|---------------------|----|
|---------------------|----|
|---------------------|----|
|---------------------|----|
|---------------------|----|


                              Gtr I
   ~~
        |--3--|  |--3--|    |-3--|       |-3--|         |-3-| |-3-|
   H    E +E  E +E  E +E    E E +E  +Q   E E +E  +Q     E E E E E E H
|-------------------------|---------------------------|-----------------------|
|-------------------------|---------------------------|-----------------------|
|-/9----7-(7)-5-(5)-4-(4)-|-5-4-(4)-(4)---------------|-------4-5-7-9b9.5r====|
|-------------------------|--------------5s2-(2)-(2)--|-4-5-7-----------------|
|-------------------------|---------------------------|-----------------------|
|-------------------------|---------------------------|-----------------------|


   |--3--|     |--3--|  |--3--|  |--3--|  |--3--|  |--3--|  |--3--|
   E  E  E     S  S  S  S  S  S  S  S  S  S  S  S  S  S  S  S  S  S
|-12-12-13----15-13-12-13-15-15-13-12-13-12-------------------------|
|-------------------------------------------15-15-12-12-13-13-15-13-|
|-------------------------------------------------------------------|
|-------------------------------------------------------------------|
|-------------------------------------------------------------------|
|-------------------------------------------------------------------|


                                                      ~
   |--3--|  |--3--|  |--3--|  |--3---|  |-3--|
   S  S  S  S  S  S  S  S  S  S  +S  S +S  S S E      Q
|---------------------------------------------------------|
|---------------------------------------------------------|
|-16-12-14-12-11-12-14-14-12-11-(11)-9-(9)-7-9-9b10.5r9---|
|---------------------------------------------------------|
|---------------------------------------------------------|
|---------------------------------------------------------|


  |-3--|  |--3--|  |--3--|  |--3--|  |--3--|  |--3--|  |--3--|  |--3--|
  S S  S  S  S  S  S  S  S  S  S  S  S  S  S  S  S  S  S  S  S  S  S  S
|-0-0-19-17-15-15-13-12-------------------------------------------------|
|-----------------------15-15-13-12-15-15-13-12-------------------------|
|-----------------------------------------------14-12-------------------|
|-----------------------------------------------------14-12----12-------|
|-----------------------------------------------------------14----15-14-|
|-----------------------------------------------------------------------|


   W
|-------|
|-------|
|-------|
|-------|
|-------|
|-12----|


   H   H         W           W
|-------------|-----------|-------|
|-12--10------|-13--------|-13----|
|-12--11------|-14--------|-14----|
|-------------|-----------|-------|
|-------------|-----------|-------|
|-------------|-----------|-------|


   |--3--|  |-3--|    |--3--|  |-3--|    |--3--|  |-3--|
   E  E  E  E  E E    E  E  E  E  E E    E  E  E  E  E E  H
|------------------|------------------|----------------------------|
|-13-12-10-12-10-9-|-13-12-10-12-10-9-|-13-12-10-12-10-9-17b18r====|
|------------------|------------------|----------------------------|
|------------------|------------------|----------------------------|
|------------------|------------------|----------------------------|
|------------------|------------------|----------------------------|


   |--3--|  |-3--|    |--3--|  |-3--|
   E  E  E  E  E E    E  E  E  E  E E
|------------------|------------------|
|-13-12-10-12-10-9-|-13-12-10-12-10-9-|
|------------------|------------------|
|------------------|------------------|
|------------------|------------------|
|------------------|------------------|


                                                         ~~
   |--3--|  |--3--|  |--3--|  |--3--|  |--3--|  |--3--|
   S  S  S  S  S  S  S  S  S  S  S  S  S  S  S  S  S  S  Q
|------------------------------------------------------------|
|-12-12-12-12-12-12-13-13-13-13-13-13-15-15-15-15-15-15-17---|
|------------------------------------------------------------|
|------------------------------------------------------------|
|------------------------------------------------------------|
|------------------------------------------------------------|





Comments