Into Eternity - Distant Pale Future Chords & Tabs

 

Distant Pale Future Chords & Tabs

Into Eternity Chords & Tabs

Version: 1 Type: Tab 0 ratings
1 star 2 stars 3 stars 4 stars 5 stars
comments

Distant Pale Future Tab

   
#----------------------------------PLEASE NOTE---------------------------------#
#This file is the author's own work and represents their interpretation of the #
#song. You may only use this file for private study, scholarship, or research. #
#------------------------------------------------------------------------------##

                         DISTANT PALE FUTURE (Rhythm Guitar)
                          As recorded by Into Eternity
                     (From the 2001 Album DEAD OR DREAMING)

Based On Original Tab by Tim Roth

Fleshed-Out and Adapted to PowerTab by J. Moroney


Gtr I (C F Bb Eb G C) - 'Untitled'

  Q=175
  Gtr I


CHORUS ["YOU LOOK INTO THE MIRROR..."]

  E E E E E E E E   E E E E  E E E E   E E E E E E E E   E E E E  E E E E
|-----------------|------------------|-----------------|------------------|
|-----------------|------------------|-----------------|------------------|
|-----------------|------------------|-----------------|------------------|
|-----------------|------------------|-----------------|------------------|
|-7-8-5-7-8-5-7-8-|-5-7-8-5-10-8-7-8-|-7-8-5-7-8-5-7-8-|-5-7-8-5-10-8-7-8-|
|-5-6-3-5-6-3-5-6-|-3-5-6-3-/8-6-5-6-|-5-6-3-5-6-3-5-6-|-3-5-6-3-/8-6-5-6-|


  E E E E E E E E   E E E E  E E E E   E E E E E E E E   E E E E  E E E E
|-----------------|------------------|-----------------|------------------|
|-----------------|------------------|-----------------|------------------|
|-----------------|------------------|-----------------|------------------|
|-----------------|------------------|-----------------|------------------|
|-7-8-5-7-8-5-7-8-|-5-7-8-5-10-8-7-8-|-7-8-5-7-8-5-7-8-|-5-7-8-5-10-8-7-8-|
|-5-6-3-5-6-3-5-6-|-3-5-6-3-/8-6-5-6-|-5-6-3-5-6-3-5-6-|-3-5-6-3-/8-6-5-6-|


  E E E E E E E E   E E E E  E E E E   E E E E E E E E   E E E E  E E E E
|-----------------|------------------|-----------------|------------------|
|-----------------|------------------|-----------------|------------------|
|-----------------|------------------|-----------------|------------------|
|-----------------|------------------|-----------------|------------------|
|-7-8-5-7-8-5-7-8-|-5-7-8-5-10-8-7-8-|-7-8-5-7-8-5-7-8-|-5-7-8-5-10-8-7-8-|
|-5-6-3-5-6-3-5-6-|-3-5-6-3-/8-6-5-6-|-5-6-3-5-6-3-5-6-|-3-5-6-3-/8-6-5-6-|


  E E E E E E E E   E E E E  E E E E   E E E E E E E E   E E E E  E E E E
|-----------------|------------------|-----------------|------------------|
|-----------------|------------------|-----------------|------------------|
|-----------------|------------------|-----------------|------------------|
|-----------------|------------------|-----------------|------------------|
|-7-8-5-7-8-5-7-8-|-5-7-8-5-10-8-7-8-|-7-8-5-7-8-5-7-8-|-5-7-8-5-10-8-7-8-|
|-5-6-3-5-6-3-5-6-|-3-5-6-3-/8-6-5-6-|-5-6-3-5-6-3-5-6-|-3-5-6-3-/8-6-5-6-|


  W  W  W  W   W        W
|--------------0--------3----|
|--------------0--------3----|
|--------------2--------0----|
|-9--7--5--4---2--------0----|
|-7--5--3--2---0--------2----|
|-----------------------3----|


  E E E E E E E E   E E E E E E E E
|-----------------|--------------------|
|-----------------|--------------------|
|-----------------|--------------------|
|-----------------|--------------------|
|-4-4-4-5-4-4-4-4-|-4-4-4-5-4-4-4-4----|
|-2-2-2-3-2-2-2-2-|-2-2-2-3-2-2-2-2----|


  W          W          W          W          W          W
|----------|----------|----------|----------|-0--------|-3----|
|----------|----------|----------|----------|-0--------|-3----|
|----------|----------|----------|----------|-2--------|-0----|
|-9--------|-7--------|-5--------|-4--------|-2--------|-0----|
|-7--------|-5--------|-3--------|-2--------|-0--------|-2----|
|----------|----------|----------|----------|----------|-3----|


  E E E E E E E E   E E E E E E E E   E E E E E E E E   E E E E E E E E
|-----------------|-----------------|-----------------|-----------------|
|-----------------|-----------------|-----------------|-----------------|
|-----------------|-----------------|-----------------|-----------------|
|-----------------|-----------------|-----------------|-----------------|
|-4-4-4-5-4-4-4-4-|-4-4-4-5-4-4-4-4-|-4-4-4-5-4-4-4-4-|-4-4-4-5-4-4-4-4-|
|-2-2-2-3-2-2-2-2-|-2-2-2-3-2-2-2-2-|-2-2-2-3-2-2-2-2-|-2-2-2-3-2-2-2-2-|


FIRST VERSE ["LIFE HAS FAILED..."]


  E E E E E E E E   E E E E  E E E E   E E E E E E E E   E E E E  E E E E
|-----------------|------------------|-----------------|------------------|
|-----------------|------------------|-----------------|------------------|
|-----------------|------------------|-----------------|------------------|
|-----------------|------------------|-----------------|------------------|
|-----------------|------------------|-----------------|------------------|
|-5-6-3-5-6-3-5-6-|-3-5-6-3-/8-6-5-6-|-5-6-3-5-6-3-5-6-|-3-5-6-3-/8-6-5-6-|


  E E E E E E E E   E E E E  E E E E   E E E E E E E E   E E E E E E  E  E
|-----------------|------------------|-----------------|-------------------|
|-----------------|------------------|-----------------|-------------------|
|-----------------|------------------|-----------------|-------------------|
|-----------------|------------------|-----------------|---5-5-5-8-8-11-11-|
|-----------------|------------------|-------4-4-4-7-7-|-7-----------------|
|-5-6-3-5-6-3-5-6-|-3-5-6-3-/8-6-5-6-|-6-6-6-----------|-------------------|


  E E E E E E E E   E E E E  E E E E   E E E E E E E E   E E E E  E E E E
|-----------------|------------------|-----------------|------------------|
|-----------------|------------------|-----------------|------------------|
|-----------------|------------------|-----------------|------------------|
|-----------------|------------------|-----------------|------------------|
|-7-8-5-7-8-5-7-8-|-5-7-8-5-10-8-7-8-|-7-8-5-7-8-5-7-8-|-5-7-8-5-10-8-7-8-|
|-5-6-3-5-6-3-5-6-|-3-5-6-3-/8-6-5-6-|-5-6-3-5-6-3-5-6-|-3-5-6-3-/8-6-5-6-|


  E E E E E E E E   E E E E  E E E E   E E E E E E E E   E E E E  E E E E
|-----------------|------------------|-----------------|------------------|
|-----------------|------------------|-----------------|------------------|
|-----------------|------------------|-----------------|------------------|
|-----------------|------------------|-----------------|------------------|
|-7-8-5-7-8-5-7-8-|-5-7-8-5-10-8-7-8-|-7-8-5-7-8-5-7-8-|-5-7-8-5-10-8-7-8-|
|-5-6-3-5-6-3-5-6-|-3-5-6-3-/8-6-5-6-|-5-6-3-5-6-3-5-6-|-3-5-6-3-/8-6-5-6-|


CHORUS


  W          W          W          W          W          W
|----------|----------|----------|----------|-0--------|-3----|
|----------|----------|----------|----------|-0--------|-3----|
|----------|----------|----------|----------|-2--------|-0----|
|-9--------|-7--------|-5--------|-4--------|-2--------|-0----|
|-7--------|-5--------|-3--------|-2--------|-0--------|-2----|
|----------|----------|----------|----------|----------|-3----|


  E E E E E E E E   E E E E E E E E
|-----------------|--------------------|
|-----------------|--------------------|
|-----------------|--------------------|
|-----------------|--------------------|
|-4-4-4-5-4-4-4-4-|-4-4-4-5-4-4-4-4----|
|-2-2-2-3-2-2-2-2-|-2-2-2-3-2-2-2-2----|


  W          W          W          W          W          W
|----------|----------|----------|----------|-0--------|-3----|
|----------|----------|----------|----------|-0--------|-3----|
|----------|----------|----------|----------|-2--------|-0----|
|-9--------|-7--------|-5--------|-4--------|-2--------|-0----|
|-7--------|-5--------|-3--------|-2--------|-0--------|-2----|
|----------|----------|----------|----------|----------|-3----|


  E E E E E E E E   E E E E E E E E   E E E E E E E E   E E E E E E E E
|-----------------|-----------------|-----------------|-----------------|
|-----------------|-----------------|-----------------|-----------------|
|-----------------|-----------------|-----------------|-----------------|
|-----------------|-----------------|-----------------|-----------------|
|-4-4-4-5-4-4-4-4-|-4-4-4-5-4-4-4-4-|-4-4-4-5-4-4-4-4-|-4-4-4-5-4-4-4-4-|
|-2-2-2-3-2-2-2-2-|-2-2-2-3-2-2-2-2-|-2-2-2-3-2-2-2-2-|-2-2-2-3-2-2-2-2-|


[THEMATIC VISTAS AND SLITHERY LEADS...]


  Q=118
  S S S S S S S S S S S S S S S S   S S S S S S S S S S S S S S S S
|---------------------------------|-----------------------------------|
|---------------------------------|-----------------------------------|
|---------------------------------|-----------------------------------|
|---------------------------------|-----------------------------------|
|---------------------------------|-----------------------------------|
|-0-0-0-0-0-0-0-0-0-0-0-0-0-0-0-0-|-0-0-0-0-0-0-0-0-0-0-0-0-0-0-0-0---|


  S S S S S S S S S S S S S S S S   S S S S S S S S S S S S S S S S
|---------------------------------|-----------------------------------|
|---------------------------------|-----------------------------------|
|---------------------------------|-----------------------------------|
|---------------------------------|-----------------------------------|
|---------------------------------|-----------------------------------|
|-0-0-0-0-0-0-0-0-0-0-0-0-0-0-0-0-|-0-0-0-0-0-0-0-0-0-0-0-0-0-0-0-0---|


  S S S S S S S S S S S S S S S S   S S S S S S S S S S S S S S S S
|---------------------------------|-----------------------------------|
|---------------------------------|-----------------------------------|
|-------------------------4-------|-------------------------4---------|
|-------4-5---4-5-7-4-5-7---7-5-4-|-------4-5---4-5-7-4-5-7---7-5-4---|
|-7-6-7-----7---------------------|-7-6-7-----7-----------------------|
|---------------------------------|-----------------------------------|


  S S S S S S S S S S S S S S S S   S S S S S S S S S S S S S S S S
|---------------------------------|-----------------------------------|
|---------------------------------|-----------------------------------|
|-------------------------4-------|-------------------------4---------|
|-------4-5---4-5-7-4-5-7---7-5-4-|-------4-5---4-5-7-4-5-7---7-5-4---|
|-7-6-7-----7---------------------|-7-6-7-----7-----------------------|
|---------------------------------|-----------------------------------|


  S S S S S S S S S S S S S S S S   S S S S S S S S S S S S S S S S
|---------------------------------|-----------------------------------|
|---------------------------------|-----------------------------------|
|-------------------------4-------|-------------------------4---------|
|-------4-5---4-5-7-4-5-7---7-5-4-|-------4-5---4-5-7-4-5-7---7-5-4---|
|-7-6-7-----7---------------------|-7-6-7-----7-----------------------|
|---------------------------------|-----------------------------------|


  S S S S S S S S S S S S S S S S   S S S S S S S S S S S S q
|---------------------------------|------------------------------|
|---------------------------------|------------------------------|
|-------------------------4-------|-7-5-4---4--------------------|
|-------4-5---4-5-7-4-5-7---7-5-4-|-------7---7-5-4-7-5-4--------|
|-7-6-7-----7---------------------|-----------------------6-7----|
|---------------------------------|------------------------------|


  S S S S S S S S S S S S S S S S   S S S S S S S S S S S S S S S S
|---------------------------------|-----------------------------------|
|---------------------------------|-----------------------------------|
|---------------------------------|-----------------------------------|
|---------------------------------|-----------------------------------|
|-7-7-7-7-7-7-7-7-7-7-7-7-7-7-7-7-|-----------------------------------|
|---------------------------------|-7-7-7-7-7-7-7-7-7-7-7-7-7-7-7-7---|


   S  S  S  S  S  S  S  S  S  S  S  S  S  S  S  S
|-------------------------------------------------|
|-------------------------------------------------|
|-------------------------------------------------|
|-------------------------------------------------|
|-------------------------------------------------|
|-10-10-10-10-10-10-10-10-10-10-10-10-10-10-10-10-|


  S S S S S S S S S S S S S S S S
|-----------------------------------|
|-----------------------------------|
|-----------------------------------|
|-----------------------------------|
|-9-9-9-9-9-9-9-9-9-9-9-9-9-9-9-9---|
|-----------------------------------|


  Q=160
  H  H   H  H  H.      E E W
|-------------------------------|
|-------------------------------|
|-------------------------------|
|-----------8--9----------------|
|-7--9--10------------10-9------|
|--------------------------7----|


  E E E E E S S E E       E E E E E S S E E
|-----------------------|-------------------|----|
|-----------------------|-------------------|----|
|-----------------------|-------2-3-5-3-2---|----|
|-------4-5-7-5-4-------|-5-4-5-----------5-|----|
|-7-6-7-----------7-----|-------------------|----|
|-----------------------|-------------------|----|


  E E E E E E E E   E E E E E E E E   E E E E E E E E   E E E E E E E E
|-----------------|-----------------|-----------------|-----------------|
|-----------------|-----------------|-----------------|-----------------|
|-----------------|-----------------|-----------------|-----------------|
|-----------------|-----------------|-----------------|-----------------|
|-4-4-4-5-4-4-4-4-|-4-4-4-5-4-4-4-4-|-4-4-4-5-4-4-4-4-|-4-4-4-5-4-4-4-4-|
|-2-2-2-3-2-2-2-2-|-2-2-2-3-2-2-2-2-|-2-2-2-3-2-2-2-2-|-2-2-2-3-2-2-2-2-|


  Q=105
  S S S S S S S S S S S S S S S S   S S S S S S S S S S S S S S S S
|---------------------------------|-----------------------------------|
|---------------------------------|-----------------------------------|
|---------------------------------|-----------------------------------|
|---------------------------------|-----------------------------------|
|-7-7-7-7-7-7-7-7-7-7-7-7-7-7-7-7-|-----------------------------------|
|---------------------------------|-7-7-7-7-7-7-7-7-7-7-7-7-7-7-7-7---|


  S S S S S S S S   S S S S S S S S S S S S S S S S   S S S S S S S S
|-----------------|---------------------------------|------------------|
|-----------------|---------------------------------|------------------|
|-----------------|---------------------------------|------------------|
|-----------------|---------------------------------|------------------|
|-5-5-5-5-5-5-5-5-|-5-5-5-5-5-5-5-5-----------------|------------------|
|-----------------|-----------------5-5-5-5-5-5-5-5-|-5-5-5-5-5-5-5-5--|


  S S S S S S S S S S S S S S S S   S S S S S S S S S S S S S S S S
|---------------------------------|-----------------------------------|
|---------------------------------|-----------------------------------|
|---------------------------------|-----------------------------------|
|---------------------------------|-----------------------------------|
|-7-7-7-7-7-7-7-7-7-7-7-7-7-7-7-7-|-----------------------------------|
|---------------------------------|-7-7-7-7-7-7-7-7-7-7-7-7-7-7-7-7---|


  S S S S S S S S S S S S S S S S   S S S S S S S S S S S S S S S S
|---------------------------------|-----------------------------------|
|---------------------------------|-----------------------------------|
|---------------------------------|-----------------------------------|
|---------------------------------|-----------------------------------|
|-5-5-5-5-5-5-5-5-5-5-5-5-5-5-5-5-|-----------------------------------|
|---------------------------------|-5-5-5-5-5-5-5-5-5-5-5-5-5-5-5-5---|


  S  S  S S  S  S S  S  S S  S  S  S  S  S S
|--------------------------------------------|----|
|---------------------------------12---------|----|
|-9-11-12-9-11-12-9-11-12-9-11-12----12-11-9-|----|
|--------------------------------------------|----|
|--------------------------------------------|----|
|--------------------------------------------|----|


  S  S  S S  S  S S  S  S S  S  S  S  S  S S
|--------------------------------------------|
|---------------------------------12---------|
|-9-11-12-9-11-12-9-11-12-9-11-12----12-11-9-|
|--------------------------------------------|
|--------------------------------------------|
|--------------------------------------------|


  S  S  S S  S  S S  S  S S  S  S  S  S  S S
|----------------------------------------------|
|----------------------------------------------|
|---------------------------------11-----------|
|-9-11-12-9-11-12-9-11-12-9-11-12----12-11-9---|
|----------------------------------------------|
|----------------------------------------------|


  S S  S S S  S S S  S S S  S  S  S S S S S  S S S  S S S  S  S S  S S  S S S
|-------------------------------------------------------------------------------|
|-----------------------------10------------------------------------------------|
|-7-9-11-7-9-11-7-9-11-7-9-11----11-9-7------------------------------9----------|
|---------------------------------------7-9-11-7-9-11-7-9-11--7-9-11---11-9-7---|
|-------------------------------------------------------------------------------|
|-------------------------------------------------------------------------------|


  S  S  S S  S  S S  S  S S  S  S  S  S  S S
|--------------------------------------------|
|---------------------------------12---------|
|-9-11-12-9-11-12-9-11-12-9-11-12----12-11-9-|
|--------------------------------------------|
|--------------------------------------------|
|--------------------------------------------|


  S  S  S S  S  S S  S  S S  S  S  S  S  S S
|----------------------------------------------|
|----------------------------------------------|
|---------------------------------11-----------|
|-9-11-12-9-11-12-9-11-12-9-11-12----12-11-9---|
|----------------------------------------------|
|----------------------------------------------|


  S S  S S S  S S S  S S S  S  S  S S S
|------------------------------------------|
|-----------------------------10-----------|
|-7-9-11-7-9-11-7-9-11-7-9-11----11-9-7----|
|------------------------------------------|
|------------------------------------------|
|------------------------------------------|


  S S S S S S S S E E E E   S S S S S S S S E E E E
|-------------------------|----------------------------|
|-------------------------|----------------------------|
|-2-3-2---2-------2---5-4-|-2-3-2---2-------2---5-4----|
|-------5---5-3-2-2-2-5-4-|-------5---5-3-2-2-2-5-4----|
|-----------------0-2-3-2-|-----------------0-2-3-2----|
|-------------------0-----|-------------------0--------|


  W          W          W          W
|----------|----------|----------|------|
|----------|----------|----------|------|
|----------|----------|----------|------|
|-9--------|-7--------|-5--------|-4----|
|-7--------|-5--------|-3--------|-2----|
|----------|----------|----------|------|


  q.      E   H          q.      E   H
|-----------------|-----------------------|
|-----------------|-----------------------|
|-----------------|-----------------------|
|-9-----------9---|------7-----------7----|
|-7-------7---7---|------5-------5---5----|
|---------5-------|--------------3--------|


  s s s s e  e   s s  q.       S S S S S S S S h    H
|----------------------------|---------------------------|
|----------------------------|---------------------------|
|----------------------------|-2-3-2---2-------2---------|
|----------------------------|-------5---5-3-2-2---------|
|-3-3-3-3-3--5---3-3---------|-----------------0---------|
|----------------------------|---------------------------|


[CHORUS / RESUME ORIGINAL TEMPO]


  Q=180
  W          W          W          W          W          W
|----------|----------|----------|----------|-0--------|-3----|
|----------|----------|----------|----------|-0--------|-3----|
|----------|----------|----------|----------|-2--------|-0----|
|-9--------|-7--------|-5--------|-4--------|-2--------|-0----|
|-7--------|-5--------|-3--------|-2--------|-0--------|-2----|
|----------|----------|----------|----------|----------|-3----|


  E E E E E E E E   E E E E E E E E
|-----------------|--------------------|
|-----------------|--------------------|
|-----------------|--------------------|
|-----------------|--------------------|
|-4-4-4-5-4-4-4-4-|-4-4-4-5-4-4-4-4----|
|-2-2-2-3-2-2-2-2-|-2-2-2-3-2-2-2-2----|


  W          W          W          W          W          W
|----------|----------|----------|----------|-0--------|-3----|
|----------|----------|----------|----------|-0--------|-3----|
|----------|----------|----------|----------|-2--------|-0----|
|-9--------|-7--------|-5--------|-4--------|-2--------|-0----|
|-7--------|-5--------|-3--------|-2--------|-0--------|-2----|
|----------|----------|----------|----------|----------|-3----|


  E E E E E E E E   E E E E E E E E   E E E E E E E E   E E E E E E E E
|-----------------|-----------------|-----------------|-----------------|
|-----------------|-----------------|-----------------|-----------------|
|-----------------|-----------------|-----------------|-----------------|
|-----------------|-----------------|-----------------|-----------------|
|-4-4-4-5-4-4-4-4-|-4-4-4-5-4-4-4-4-|-4-4-4-5-4-4-4-4-|-4-4-4-5-4-4-4-4-|
|-2-2-2-3-2-2-2-2-|-2-2-2-3-2-2-2-2-|-2-2-2-3-2-2-2-2-|-2-2-2-3-2-2-2-2-|


[...SECOND VERSE + DOUBLE-CHORUS...]

[CONCLUSION]


  E E E E E E E E   E E E E E E E E   E E E E E E E E   E E E E E E E E
|-----------------|-----------------|-----------------|-----------------|
|-----------------|-----------------|-----------------|-----------------|
|-----------------|---------4-------|-----------------|---------4-------|
|-------4-5---4-5-|-7-4-5-7---7-5-4-|-------4-5---4-5-|-7-4-5-7---7-5-4-|
|-7-6-7-----7-----|-----------------|-7-6-7-----7-----|-----------------|
|-----------------|-----------------|-----------------|-----------------|


  E E E E E E E E   E E E E E E E E   E E E E E E E E   E E E E E E E E
|-----------------|-----------------|-----------------|-----------------|
|-----------------|-----------------|-----------------|-----------------|
|-----------------|---------4-------|-----------------|---------4-------|
|-------4-5---4-5-|-7-4-5-7---7-5-4-|-------4-5---4-5-|-7-4-5-7---7-5-4-|
|-7-6-7-----7-----|-----------------|-7-6-7-----7-----|-----------------|
|-----------------|-----------------|-----------------|-----------------|


  w
|-------|
|-------|
|-------|
|-------|
|-7\----|
|-------|


#----------------------------------PLEASE NOTE---------------------------------#
#This file is the author's own work and represents their interpretation of the #
#song. You may only use this file for private study, scholarship, or research. #
#------------------------------------------------------------------------------##

                               DISTANT PALE FUTURE
                          As recorded by Into Eternity
                     (From the 2001 Album DEAD OR DREAMING)


Lead Guitar ["Tim's Body Parts"]

Gtr I (C F A# D# G C) - 'Guitar I'

  Q=175
  Gtr I


CHORUS ["YOU LOOK INTO THE MIRROR..."]


  E E E E E E E E   E E E E  E E E E   E E E E E E E E   E E E E  E E E E
|-----------------|------------------|-----------------|------------------|
|-----------------|------------------|-----------------|------------------|
|-----------------|------------------|-----------------|------------------|
|-----------------|------------------|-----------------|------------------|
|-7-8-5-7-8-5-7-8-|-5-7-8-5-10-8-7-8-|-7-8-5-7-8-5-7-8-|-5-7-8-5-10-8-7-8-|
|-5-6-3-5-6-3-5-6-|-3-5-6-3-/8-6-5-6-|-5-6-3-5-6-3-5-6-|-3-5-6-3-/8-6-5-6-|


  E E E E E E E E   E E E E  E E E E   E E E E E E E E   E E E E  E E E E
|-----------------|------------------|-----------------|------------------|
|-----------------|------------------|-----------------|------------------|
|-----------------|------------------|-----------------|------------------|
|-----------------|------------------|-----------------|------------------|
|-7-8-5-7-8-5-7-8-|-5-7-8-5-10-8-7-8-|-7-8-5-7-8-5-7-8-|-5-7-8-5-10-8-7-8-|
|-5-6-3-5-6-3-5-6-|-3-5-6-3-/8-6-5-6-|-5-6-3-5-6-3-5-6-|-3-5-6-3-/8-6-5-6-|


  E E E E E E E E   E E E E  E E E E   E E E E E E E E   E E E E  E E E E
|-----------------|------------------|-----------------|------------------|
|-----------------|------------------|-----------------|------------------|
|-----------------|------------------|-----------------|------------------|
|-----------------|------------------|-----------------|------------------|
|-7-8-5-7-8-5-7-8-|-5-7-8-5-10-8-7-8-|-7-8-5-7-8-5-7-8-|-5-7-8-5-10-8-7-8-|
|-5-6-3-5-6-3-5-6-|-3-5-6-3-/8-6-5-6-|-5-6-3-5-6-3-5-6-|-3-5-6-3-/8-6-5-6-|

[ Tab from: http://www.guitartabs.cc/tabs/i/into_eternity/distant_pale_future_tab.html ]
  E E E E E E E E   E E E E  E E E E   E E E E E E E E   E E E E  E E E E
|-----------------|------------------|-----------------|------------------|
|-----------------|------------------|-----------------|------------------|
|-----------------|------------------|-----------------|------------------|
|-----------------|------------------|-----------------|------------------|
|-7-8-5-7-8-5-7-8-|-5-7-8-5-10-8-7-8-|-7-8-5-7-8-5-7-8-|-5-7-8-5-10-8-7-8-|
|-5-6-3-5-6-3-5-6-|-3-5-6-3-/8-6-5-6-|-5-6-3-5-6-3-5-6-|-3-5-6-3-/8-6-5-6-|


  W  W  W  W   W        W
|--------------0--------3----|
|--------------0--------3----|
|--------------2--------0----|
|-9--7--5--4---2--------0----|
|-7--5--3--2---0--------2----|
|-----------------------3----|


   E  E E  E  E  E E  E    E  E E  E  E  E E  E
|-----------------------|--------------------------|
|-----------------------|--------------------------|
|-11------12-11---------|-11------12-11------------|
|----11---------11---11-|----11---------11---11----|
|-------9----------9----|-------9----------9-------|
|-----------------------|--------------------------|


  W          W          W          W          W          W
|----------|----------|----------|----------|-0--------|-3----|
|----------|----------|----------|----------|-0--------|-3----|
|----------|----------|----------|----------|-2--------|-0----|
|-9--------|-7--------|-5--------|-4--------|-2--------|-0----|
|-7--------|-5--------|-3--------|-2--------|-0--------|-2----|
|----------|----------|----------|----------|----------|-3----|


   E  E E  E  E  E E  E    E  E E  E  E  E E  E
|-----------------------|-----------------------|
|-----------------------|-----------------------|
|-11------12-11---------|-11------12-11---------|
|----11---------11---11-|----11---------11---11-|
|-------9----------9----|-------9----------9----|
|-----------------------|-----------------------|


   E  E E  E  E  E E  E    E  E E  E  E  E E  E
|-----------------------|-----------------------|
|-----------------------|-----------------------|
|-11------12-11---------|-11------12-11---------|
|----11---------11---11-|----11---------11---11-|
|-------9----------9----|-------9----------9----|
|-----------------------|-----------------------|


FIRST VERSE	[8-BAR REST / REHYDRATION]


  Wx8
|--------|----|
|--------|----|
|--------|----|
|--------|----|
|--------|----|
|--------|----|


  E E E E E E E E   E E E E  E E E E   E E E E E E E E   E E E E  E E E E
|-----------------|------------------|-----------------|------------------|
|-----------------|------------------|-----------------|------------------|
|-----------------|------------------|-----------------|------------------|
|-----------------|------------------|-----------------|------------------|
|-7-8-5-7-8-5-7-8-|-5-7-8-5-10-8-7-8-|-7-8-5-7-8-5-7-8-|-5-7-8-5-10-8-7-8-|
|-5-6-3-5-6-3-5-6-|-3-5-6-3-/8-6-5-6-|-5-6-3-5-6-3-5-6-|-3-5-6-3-/8-6-5-6-|


  E E E E E E E E   E E E E  E E E E   E E E E E E E E   E E E E  E E E E
|-----------------|------------------|-----------------|------------------|
|-----------------|------------------|-----------------|------------------|
|-----------------|------------------|-----------------|------------------|
|-----------------|------------------|-----------------|------------------|
|-7-8-5-7-8-5-7-8-|-5-7-8-5-10-8-7-8-|-7-8-5-7-8-5-7-8-|-5-7-8-5-10-8-7-8-|
|-5-6-3-5-6-3-5-6-|-3-5-6-3-/8-6-5-6-|-5-6-3-5-6-3-5-6-|-3-5-6-3-/8-6-5-6-|



CHORUS

  W          W          W          W          W          W
|----------|----------|----------|----------|-0--------|-3----|
|----------|----------|----------|----------|-0--------|-3----|
|----------|----------|----------|----------|-2--------|-0----|
|-9--------|-7--------|-5--------|-4--------|-2--------|-0----|
|-7--------|-5--------|-3--------|-2--------|-0--------|-2----|
|----------|----------|----------|----------|----------|-3----|


   E  E E  E  E  E E  E    E  E E  E  E  E E  E
|-----------------------|--------------------------|
|-----------------------|--------------------------|
|-11------12-11---------|-11------12-11------------|
|----11---------11---11-|----11---------11---11----|
|-------9----------9----|-------9----------9-------|
|-----------------------|--------------------------|


  W          W          W          W          W          W
|----------|----------|----------|----------|-0--------|-3----|
|----------|----------|----------|----------|-0--------|-3----|
|----------|----------|----------|----------|-2--------|-0----|
|-9--------|-7--------|-5--------|-4--------|-2--------|-0----|
|-7--------|-5--------|-3--------|-2--------|-0--------|-2----|
|----------|----------|----------|----------|----------|-3----|


   E  E E  E  E  E E  E    E  E E  E  E  E E  E
|-----------------------|-----------------------|
|-----------------------|-----------------------|
|-11------12-11---------|-11------12-11---------|
|----11---------11---11-|----11---------11---11-|
|-------9----------9----|-------9----------9----|
|-----------------------|-----------------------|


   E  E E  E  E  E E  E    E  E E  E  E  E E  E
|-----------------------|-----------------------|
|-----------------------|-----------------------|
|-11------12-11---------|-11------12-11---------|
|----11---------11---11-|----11---------11---11-|
|-------9----------9----|-------9----------9----|
|-----------------------|-----------------------|


[VISTAS, LEADS, ETC...]


  Q=118
  s s s s s s s s s s s s s s s s   s s s s s s s s s s s s s s s s
|---------------------------------|-----------------------------------|
|---------------------------------|-----------------------------------|
|---------------------------------|-----------------------------------|
|---------------------------------|-----------------------------------|
|---------------------------------|-----------------------------------|
|-0-0-0-0-0-0-0-0-0-0-0-0-0-0-0-0-|-0-0-0-0-0-0-0-0-0-0-0-0-0-0-0-0---|


  s s s s s s s s s s s s s s s s   s s s s s s s s s s s s s s s s
|---------------------------------|-----------------------------------|
|---------------------------------|-----------------------------------|
|---------------------------------|-----------------------------------|
|---------------------------------|-----------------------------------|
|---------------------------------|-----------------------------------|
|-0-0-0-0-0-0-0-0-0-0-0-0-0-0-0-0-|-0-0-0-0-0-0-0-0-0-0-0-0-0-0-0-0---|


  s s s s s s s s s s s s s s s s   s s s s s s s s s s s s s s s s
|---------------------------------|-----------------------------------|
|---------------------------------|-----------------------------------|
|---------------------------------|-----------------------------------|
|---------------------------------|-----------------------------------|
|---------------------------------|-----------------------------------|
|-0-0-0-0-0-0-0-0-0-0-0-0-0-0-0-0-|-0-0-0-0-0-0-0-0-0-0-0-0-0-0-0-0---|


  s s s s s s s s s s s s s s s s   s s s s s s s s s s s s s s s s
|---------------------------------|-----------------------------------|
|---------------------------------|-----------------------------------|
|---------------------------------|-----------------------------------|
|---------------------------------|-----------------------------------|
|---------------------------------|-----------------------------------|
|-0-0-0-0-0-0-0-0-0-0-0-0-0-0-0-0-|-0-0-0-0-0-0-0-0-0-0-0-0-0-0-0-0---|


   S  S  S  S  S  S  S  S  S  S  S  S  S  S  S  S
|-------------------------------------------------|
|-------------------------------------12----------|
|----------11-12----11-12-14-11-12-14----14-12-11-|
|-14-13-14-------14-------------------------------|
|-------------------------------------------------|
|-------------------------------------------------|


   S  S  S  S  S  S  S  S  S  S  S  S  S  S  S  S
|---------------------------------------------------|
|-------------------------------------12------------|
|----------11-12----11-12-14-11-12-14----14-12-11---|
|-14-13-14-------14---------------------------------|
|---------------------------------------------------|
|---------------------------------------------------|


   S  S  S  S  S  S  S  S  S  S  S  S  S  S  S  S
|-------------------------------------------------|
|-------------------------------------12----------|
|----------11-12----11-12-14-11-12-14----14-12-11-|
|-14-13-14-------14-------------------------------|
|-------------------------------------------------|
|-------------------------------------------------|


   S  S  S  S  S  S  S  S  S  S  S  S  q
|-------------------------------------------|
|-15-13-12----12----------------------------|
|----------14----14-12-11-14-12-11----------|
|----------------------------------13-14----|
|-------------------------------------------|
|-------------------------------------------|


   S  S  S  S  S  S  S  S  S  S  S  S  S  S  S  S
|-------------------------------------------------|
|-------------------------------------12----------|
|----------11-12----11-12-14-11-12-14----14-12-11-|
|-14-13-14-------14-------------------------------|
|-------------------------------------------------|
|-------------------------------------------------|


   S  S  S  S  S  S  S  S  S  S  S  S  S  S  S  S
|---------------------------------------------------|
|---------------------------------------------------|
|-------------------------------------11------------|
|----------11-12----11-12-14-11-12-14----14-12-11---|
|-14-13-14-------14---------------------------------|
|---------------------------------------------------|


   S  S  S  S  S  S  S  S  S  S  S  S  S  S  S  S
|-------------------------------------------------|
|-------------------------------------------------|
|-14-12-11----12-11-------11----------------------|
|----------14-------14-12----14-12-11-14-12-11----|
|----------------------------------------------14-|
|-------------------------------------------------|


   S  S  S  S  S  S  S  S  S  S  S  S  S  S  S  S
|-------------------------14------------------------|
|-------14-17-15-14----14----17-15-14-17-15-14------|
|----14-------------16-------------------------14---|
|-16------------------------------------------------|
|---------------------------------------------------|
|---------------------------------------------------|


  Q=160
   E  E  E  E  Q.      E    E  E  E  E  Q.      E
|------------------------|---------------------------|
|-17-------15-17b19r==15-|-17-------15-17b19r==15----|
|----12-16---------------|----12-16------------------|
|------------------------|---------------------------|
|------------------------|---------------------------|
|------------------------|---------------------------|


   E  E  E  E  E  E  E  E     E  E  E  E  E  E  E  E
|--------------------------|-------------------------|----|
|-16-12--------------------|-16-12-------------------|----|
|--------------------------|-------------------------|----|
|-------17-16-14-16--------|-------17-16-14-16-------|----|
|-------------------15-14--|-------------------15-14-|----|
|--------------------------|-------------------------|----|


  E E E E E S S E E    E  E  E E  E  S  S E  E
|-------------------|-----------------------------|
|-------------------|-----------------------------|
|-------4-6-7-6-4---|----------9-10-12-10-9-------|
|-7-6-7-----------7-|-12-11-12--------------12----|
|-------------------|-----------------------------|
|-------------------|-----------------------------|


   E  E E  E  E  E E  E    E  E E  E  E  E E  E
|-----------------------|-----------------------|
|-----------------------|-----------------------|
|-11------12-11---------|-11------12-11---------|
|----11---------11---11-|----11---------11---11-|
|-------9----------9----|-------9----------9----|
|-----------------------|-----------------------|


   E  E E  E  E  E E  E    E  E E  E  E  E E  E
|-----------------------|-----------------------|
|-----------------------|-----------------------|
|-11------12-11---------|-11------12-11---------|
|----11---------11---11-|----11---------11---11-|
|-------9----------9----|-------9----------9----|
|-----------------------|-----------------------|


  Q=105
  ~~
  H.      E E   E. E S E. E. E E
|-------------|---------------------|
|-------------|---------------------|
|-4-------6-7-|-4--6-7-9--7--6-7----|
|-------------|---------------------|
|-------------|---------------------|
|-------------|---------------------|


                                          ~
                       |-3-|  |-3-| |-3-|
  E.   E. E. E. E E    S S S  S S S S S S H    +E
|-------------------|-10-8-7--------------------------|
|-------------------|--------10-8-7-------------------|
|-9b11-9--7--6--7-9-|---------------9-7-6-------------|
|-------------------|---------------------7----(7)----|
|-------------------|---------------------------------|
|-------------------|---------------------------------|


                                                           |--3--|  |--3--|
   T  T  T  T  T  +T   T  T  S  S  T  T  S  S  T  T  S  S  S  S  S  S  S  S
|------------------------------------------------------------------------------|
|-------13-12---------12-13-12----12-13-12----12-13-12----12-------------------|
|----12-------14-(14)----------14----------14----------14----14-12-11-12-15----|
|-14---------------------------------------------------------------------------|
|------------------------------------------------------------------------------|
|------------------------------------------------------------------------------|


   |--3--|                          |--3--|
   S  S  S  S  S  S  S  T  T  T  T  E  E  E  S   S   E
|-------11-12-13-16-13-12-13-12-11-12-11------------------|
|-12-13----------------------------------13-12--17--17----|
|---------------------------------------------------------|
|---------------------------------------------------------|
|---------------------------------------------------------|
|---------------------------------------------------------|


           |--3--|  |--3--|  |--3--|  |--3--|          |--3--|
  S  T  T  S  S  S  S  S  S  S  S  S  S  S  S  E       S  S  S  S  S
|---20-17-20-17----17----------------17----17---------------------------|
|---------------21----21-20-17-20-21----21------------------------------|
|---------------------------------------------19b21r==17-19-17----17----|
|--------------------------------------------------------------19-------|
|-----------------------------------------------------------------------|
|-----------------------------------------------------------------------|


   E.  E.  E.  E.  Q
|--------------------------|
|-----------------20b22----|
|-19--17-------------------|
|---------19--17-----------|
|--------------------------|
|--------------------------|


  S  S  S S  S  S S  S  S S  S  S  S  S  S S
|---------------------------------10---------|----|
|-8-10-12-8-10-12-8-10-12-8-10-12----12-10-8-|----|
|--------------------------------------------|----|
|--------------------------------------------|----|
|--------------------------------------------|----|
|--------------------------------------------|----|


  S  S  S S  S  S S  S  S S  S  S  S  S  S S
|---------------------------------10---------|
|-8-10-12-8-10-12-8-10-12-8-10-12----12-10-8-|
|--------------------------------------------|
|--------------------------------------------|
|--------------------------------------------|
|--------------------------------------------|


  S S  S S S  S S S  S S S  S S  S S S
|-----------------------------7----------|
|-7-9-10-7-9-10-7-9-10-7-9-10---10-9-7---|
|----------------------------------------|
|----------------------------------------|
|----------------------------------------|
|----------------------------------------|


   S  S  S  S  S  S  S  S  S  S  S  S  S  S  S  S
|-------------------------------------12----------|
|-10-12-14-10-12-14-10-12-14-10-12-14----14-12-10-|
|-------------------------------------------------|
|-------------------------------------------------|
|-------------------------------------------------|
|-------------------------------------------------|


  S S  S S S  S S S  S S S  S S  S S S
|-----------------------------7----------|
|-7-9-10-7-9-10-7-9-10-7-9-10---10-9-7---|
|----------------------------------------|
|----------------------------------------|
|----------------------------------------|
|----------------------------------------|


  S  S  S S  S  S S  S  S S  S  S  S  S  S S
|---------------------------------10---------|
|-8-10-12-8-10-12-8-10-12-8-10-12----12-10-8-|
|--------------------------------------------|
|--------------------------------------------|
|--------------------------------------------|
|--------------------------------------------|


  S S  S S S  S S S  S S S  S S  S S S
|-----------------------------7----------|
|-7-9-10-7-9-10-7-9-10-7-9-10---10-9-7---|
|----------------------------------------|
|----------------------------------------|
|----------------------------------------|
|----------------------------------------|


   S  S  S  S  S  S  S  S  S  S  S  S  S  S  S  S
|-------------------------------------12-------------|
|-10-12-14-10-12-14-10-12-14-10-12-14----14-12-10----|
|----------------------------------------------------|
|----------------------------------------------------|
|----------------------------------------------------|
|----------------------------------------------------|


  S S S S S S S S E E E E   S S S S S S S S E E E E
|-------------------------|----------------------------|
|-5-6-5---5---------------|-5-6-5---5------------------|
|-------7---7-5-4-2---5-4-|-------7---7-5-4-2---5-4----|
|-----------------2-2-5-4-|-----------------2-2-5-4----|
|-----------------0-2-3-2-|-----------------0-2-3-2----|
|-------------------0-----|-------------------0--------|


   S  S  S  S  S  S  S  S  S  S  S  S  S  S  S  S  S S S S S S S S   H
|-12----------------------------------------------------------------------|
|----15-13-12-13-12-------12-----------------------6-5--------------------|
|-------------------14-13----14-13----13---------------7-5-7-5-4-2-/16----|
|----------------------------------15----15-14-12-------------------------|
|-------------------------------------------------------------------------|
|-------------------------------------------------------------------------|


                                                    ~~~
  S S S S S S S S S S S S S S S S   S S S S S S S S H
|---------------------------------|------------------------|
|-6-5-----------------------------|------------------------|
|-----7-5-7-5-4---5-4-------------|------------------------|
|---------------7-----7-6-7-6-----|-5----------------------|
|-----------------------------8-7-|---8-7-5-7-5------------|
|---------------------------------|-------------8-7-5b7----|


  |-3-| |-3-|   |--3--|  |--3--|   |--3--|  |--3--|   |--3--|  |--3--|
  S S S S S S   S  S  S  S  S  S   S  S  S  S  S  S   S  S  S  S  S  S
|-7---------5-/12-------------12-/14-10-------10-15-/19-15-------14-15----|
|---8-----5-------13-------13-----------12-----------------17-------------|
|-----9--------------14---------------------------------------------------|
|-------------------------------------------------------------------------|
|-------7-----------------------------------------------------------------|
|-----------------------14-----------------10-----------------15----------|


   T  T  T  T  T  T  T  T  T  T  T  T  T  T  T  T  T  T  T  T  T  T  T  T  E     E
|-17-20-19-17-15-19-17-15-13-17-15-13-12-15-13-12----14-12----------------------------|
|-------------------------------------------------15-------13-12-15-13-12-15b16-12----|
|-------------------------------------------------------------------------------------|
|-------------------------------------------------------------------------------------|
|-------------------------------------------------------------------------------------|
|-------------------------------------------------------------------------------------|


                                                               |--3--|  |--3--|  |--3--|
   T  T  T  T  T  T  T  T  T  T  T  T  T  T  T  T  T  T  T  T  S  S  S  S  S  S  S  S  S
|----15-17-15-12-15-17-17----------17----------17-------------20-17-------20-17-------20----|
|-17----------------------20-19-17----20-19-17----20-19-17-17-------18-17-------18-17-------|
|-------------------------------------------------------------------------------------------|
|-------------------------------------------------------------------------------------------|
|-------------------------------------------------------------------------------------------|
|-------------------------------------------------------------------------------------------|


   |--3--|  |--3--|  |--3--|  |--3--|  |--3--|  |--3--|  |--3--|  |--3--|
   T  T  T  T  T  T  T  T  T  T  T  T  T  T  T  T  T  T  T  T  T  T  T  T
|-20-19-16----------20-19-16----------20-19-------------20-19----------------|
|----------------18-------------18-17-------17-17-22-21-------17-18-17-21----|
|----------17-16-------------17----------------------------------------------|
|----------------------------------------------------------------------------|
|----------------------------------------------------------------------------|
|----------------------------------------------------------------------------|


    H         H
|-/20\------------|----|
|-----------------|----|
|-----------------|----|
|-----------------|----|
|-----------------|----|
|-----------------|----|


[CHORUS / RESUME ORIGINAL TEMPO]


  Q=180
  W          W          W          W          W          W
|----------|----------|----------|----------|-0--------|-3----|
|----------|----------|----------|----------|-0--------|-3----|
|----------|----------|----------|----------|-2--------|-0----|
|-9--------|-7--------|-5--------|-4--------|-2--------|-0----|
|-7--------|-5--------|-3--------|-2--------|-0--------|-2----|
|----------|----------|----------|----------|----------|-3----|


   E  E E  E  E  E E  E    E  E E  E  E  E E  E
|-----------------------|-----------------------|----|
|-----------------------|-----------------------|----|
|-11------12-11---------|-11------12-11---------|----|
|----11---------11---11-|----11---------11---11-|----|
|-------9----------9----|-------9----------9----|----|
|-----------------------|-----------------------|----|


  W          W          W          W          W          W
|----------|----------|----------|----------|-0--------|-3----|
|----------|----------|----------|----------|-0--------|-3----|
|----------|----------|----------|----------|-2--------|-0----|
|-9--------|-7--------|-5--------|-4--------|-2--------|-0----|
|-7--------|-5--------|-3--------|-2--------|-0--------|-2----|
|----------|----------|----------|----------|----------|-3----|


   E  E E  E  E  E E  E    E  E E  E  E  E E  E
|-----------------------|-----------------------|
|-----------------------|-----------------------|
|-11------12-11---------|-11------12-11---------|
|----11---------11---11-|----11---------11---11-|
|-------9----------9----|-------9----------9----|
|-----------------------|-----------------------|


   E  E E  E  E  E E  E    E  E E  E  E  E E  E
|-----------------------|-----------------------|
|-----------------------|-----------------------|
|-11------12-11---------|-11------12-11---------|
|----11---------11---11-|----11---------11---11-|
|-------9----------9----|-------9----------9----|
|-----------------------|-----------------------|


[...SECOND VERSE + DOUBLE-CHORUS...]

[CONCLUSION]


   E  E  E  E  E  E  E  E  E  E  E  E  E  E  E  E
|-------------------------------------------------|
|-------------------------------------12----------|
|----------11-12----11-12-14-11-12-14----14-12-11-|
|-14-13-14-------14-------------------------------|
|-------------------------------------------------|
|-------------------------------------------------|


   E  E  E  E  E  E  E  E  E  E  E  E  E  E  E  E
|-------------------------------------------------|
|-------------------------------------12----------|
|----------11-12----11-12-14-11-12-14----14-12-11-|
|-14-13-14-------14-------------------------------|
|-------------------------------------------------|
|-------------------------------------------------|


   E  E  E  E  E  E  E  E  E  E  E  E  E  E  E  E
|-------------------------------------------------|
|-------------------------------------12----------|
|----------11-12----11-12-14-11-12-14----14-12-11-|
|-14-13-14-------14-------------------------------|
|-------------------------------------------------|
|-------------------------------------------------|


   E  E  E  E  E  E  E  E  E  E  E  E  E  E  E  E
|---------------------------------------------------|
|-------------------------------------12------------|
|----------11-12----11-12-14-11-12-14----14-12-11---|
|-14-13-14-------14---------------------------------|
|---------------------------------------------------|
|---------------------------------------------------|


   w
|--------|
|--------|
|--------|
|-14\----|
|--------|
|--------|


Duration Legend
---------------
W - whole; H - half; Q - quarter; E - 8th; S - 16th; T - 32nd; X - 64th; a - acciaccatura
+ - note tied to previous; . - note dotted; .. - note double dotted
Uncapitalized letters represent notes that are staccato (1/2 duration)
Irregular groupings are notated above the duration line
Duration letters will always appear directly above the note/fret number it represents the
duration for.  Duration letters with no fret number below them represent rests.  Multi-
bar rests are notated in the form Wxn, where n is the number of bars to rest for.  Low
melody durations appear below the staff

Tablature Legend
----------------
 h   - hammer-on
 p   - pull-off
 b   - bend
 pb  - pre-bend
 r   - bend release (if no number after the r, then release immediately)
 /\  - slide into or out of (from/to "nowhere")
 s   - legato slide
 S   - shift slide
  - natural harmonic
[n]  - artificial harmonic
n(n) - tapped harmonic
 ~   - vibrato
 tr  - trill
 T   - tap
 TP  - trem. picking
 PM  - palm muting
\n/  - tremolo bar dip; n = amount to dip
 \n  - tremolo bar down
 n/  - tremolo bar up
/n\  - tremolo bar inverted dip
 =   - hold bend; also acts as connecting device for hammers/pulls
   - volume swell (louder/softer)
 x   - on rhythm slash represents muted slash
 o   - on rhythm slash represents single note slash

Misc Legend
-----------
 |  - bar
||  - double bar
||o - repeat start
o|| - repeat end
*|  - double bar (ending)
 :  - bar (freetime)
 $  - Segno
 &  - Coda
Tempo markers -  = BPM(8/16=s8/s16), where s8 = swing 8ths, s16 = swing 16ths


***************************************************************************************
* Generated using Power Tab Editor by Brad Larsen - http://powertab.guitarnetwork.org *
***************************************************************************************

Comments