Into Eternity - Buried In Oblivion Chords & Tabs

 

Buried In Oblivion Chords & Tabs

Into Eternity Chords & Tabs

Version: 1 Type: Tab

Buried In Oblivion Tab

This is my first tab but i think i got most of it right.
/ slide up
\ slide down
T tremelo pick
h hammer on
p pull off

*i didnt put how many times to tremelo pick but its around 9 or 10
------------------------------------------------------------|
----6/8\6---------6/8--9-8-9----11----9p8h9---8p6h8--6p4h6--|
-5------------5---------------------------------------------|
------------------------------------------------------------|
------------------------------------------------------------|
------------------------------------------------------------|

------------------------------------------------------------|
----6/8\6---------6/8--9-8-9----11-9-8-9-8------------------|
--5-------------5--------------------------8----------------|
---------------------------------------------10-------------|
------------------------------------------------------------|
------------------------------------------------------------|
[ Tab from: http://www.guitartabs.cc/tabs/i/into_eternity/buried_in_oblivion_tab.html ]
------------------------------------------------------------|
----6/8\6---------6/8--9-8-9----11----9p8h9---8p6h8--6p4h6--|
-5------------5---------------------------------------------|
------------------------------------------------------------|
------------------------------------------------------------|
------------------------------------------------------------|

-8T--9--11-9--8----8----------------------------------------|
----------------9----9--------------------------------------|
-----------------------8------------------------------------|
--------------------------10-11-10----10--------------------|
-----------------------------------11----11-10-8-10-11------|
------------------------------------------------------------|

------------------------------------------------------------|
--------------------------------6---8-8-9-11-9---11-9-8-9---|
------------------------------5-----------------------------|
-----------------8-10-11-10---------------------------------|
--8-10-11-10------------------------------------------------|
------------------------------------------------------------|