Into Eternity - Absolution Of The Soul Chords & Tabs

 

Absolution Of The Soul Chords & Tabs

Into Eternity Chords & Tabs

Version: 1 Type: Tab 0 ratings
1 star 2 stars 3 stars 4 stars 5 stars
comments

Absolution Of The Soul Tab

   
#----------------------------------PLEASE NOTE---------------------------------#
#This file is the author's own work and represents their interpretation of the #
#song. You may only use this file for private study, scholarship, or research. #
#------------------------------------------------------------------------------##

                             ABSOLUTION OF THE SOUL
                          As recorded by Into Eternity


Gtr I (C F A# D# G C) - 'Main Guitar'
Gtr II (C F A# D# G C) - 'Death Growl'

  Q=160
  Gtr I

INTRO 
|-----------------|-----------------|-----------------|-----------------|
|-----------------|-----------------|-----------------|-----------------|
|-----------------|-----------------|-----------------|-----------------|
|-----------------|-----------------|-----------------|-----------------|
|-2-4-5-4-2-3-4-5-|-2-4-5-4-2-3-4-5-|-2-4-5-4-2-3-4-5-|-2-4-5-4-2-3-4-5-|
|-0-2-3-2-0-1-2-3-|-0-2-3-2-0-1-2-3-|-0-2-3-2-0-1-2-3-|-0-2-3-2-0-1-2-3-|


|-----------------|-----------------|-----------------|-----------------|
|-----------------|-----------------|-----------------|-----------------|
|-----------------|-----------------|-----------------|-----------------|
|-----------------|-----------------|-----------------|-----------------|
|-2-4-5-4-2-3-4-5-|-2-4-5-4-2-3-4-5-|-2-4-5-4-2-3-4-5-|-2-4-5-4-2-3-4-5-|
|-0-2-3-2-0-1-2-3-|-0-2-3-2-0-1-2-3-|-0-2-3-2-0-1-2-3-|-0-2-3-2-0-1-2-3-|



CHORUS ("ENDLESS SORROW"...)
|------------------|-----3-(3)--(3)----|------------------|--------------------|
|------------------|-----3-(3)--(3)----|------------------|--------------------|
|------------------|-----0-(0)--(0)----|------------------|--------------------|
|--------4--(4)-5--|-(5)-0-(0)--(0)----|--------4--(4)-5--|--------------------|
|-2--(2)-2--(2)-3--|-(3)-2-(2)--(2)----|-2--(2)-2--(2)-3--|--------(3)---|
|-0--(0)-----------|-----3-(3)--(3)----|-0--(0)-----------|-0------0-----------|


|------------------|-----3-(3)----------|
|------------------|-----3-(3)----------|
|------------------|-----0-(0)----------|
|--------4--(4)-5--|-(5)-0-(0)----------|
|-2--(2)-2--(2)-3--|-(3)-2-(2)--4-5-4-3-|
|-0--(0)-----------|-----3-(3)--2-3-2-1-|


|------------------|-----3-(3)----------|
|------------------|-----3-(3)----------|
|------------------|-----0-(0)----------|
|--------4--(4)-5--|-(5)-0-(0)----------|
|-2--(2)-2--(2)-3--|-(3)-2-(2)--4-5-4-3-|
|-0--(0)-----------|-----3-(3)--2-3-2-1-|


|------------------|-----3-(3)----------|-----------------|---------------|
|------------------|-----3-(3)----------|-----------------|---------------|
|------------------|-----0-(0)----------|-----------------|---------------|
|--------4--(4)-5--|-(5)-0-(0)----------|-----------------|---------------|
|-2--(2)-2--(2)-3--|-(3)-2-(2)--4-5-4-3-|-------2-2-2-3-3-|-3-------7-7---|
|-0--(0)-----------|-----3-(3)--2-3-2-1-|-0-0-0-----------|---3-3-3-5-5---|


|------------------|-----3-(3)----------|
|------------------|-----3-(3)----------|
|------------------|-----0-(0)----------|
|--------4--(4)-5--|-(5)-0-(0)----------|
|-2--(2)-2--(2)-3--|-(3)-2-(2)--4-5-4-3-|
|-0--(0)-----------|-----3-(3)--2-3-2-1-|


|------------------|-----3-(3)----------|
|------------------|-----3-(3)----------|
|------------------|-----0-(0)----------|
|--------4--(4)-5--|-(5)-0-(0)----------|
|-2--(2)-2--(2)-3--|-(3)-2-(2)--4-5-4-3-|
|-0--(0)-----------|-----3-(3)--2-3-2-1-|


|------------------|-----3-(3)----------|-----------------|---------------|
|------------------|-----3-(3)----------|-----------------|---------------|
|------------------|-----0-(0)----------|-----------------|---------------|
|--------4--(4)-5--|-(5)-0-(0)----------|-----------------|---------------|
|-2--(2)-2--(2)-3--|-(3)-2-(2)--4-5-4-3-|-------2-2-2-3-3-|-3-------7--7--|
|-0--(0)-----------|-----3-(3)--2-3-2-1-|-0-0-0-----------|---3-3-3-5--5--|


"THE SUFFERING!!!"
|----------------------|-------|
|----------------------|-------|
|----------------------|-------|
|----------------------|-------|
|----------------------|-------|
|-0--(0)-0--(0)-0-(0)--|-------|


"ABONIMATE..."
|-----------------|-----------------|-----------------|-----------------|
|-----------------|-----------------|-----------------|-----------------|
|-----------------|-----------------|-----------------|-----------------|
|-----------------|-----------------|-----------------|-----------------|
|-2-4-5-4-2-3-4-5-|-2-4-5-4-2-3-4-5-|-2-4-5-4-2-3-4-5-|-2-4-5-4-2-3-4-5-|
|-0-2-3-2-0-1-2-3-|-0-2-3-2-0-1-2-3-|-0-2-3-2-0-1-2-3-|-0-2-3-2-0-1-2-3-|


|-----------------|-----------------|-----------------|-----------------|
|-----------------|-----------------|-----------------|-----------------|
|-----------------|-----------------|-----------------|-----------------|
|-----------------|-----------------|-----------------|-----------------|
|-2-4-5-4-2-3-4-5-|-2-4-5-4-2-3-4-5-|-2-4-5-4-2-3-4-5-|-2-4-5-4-2-3-4-5-|
|-0-2-3-2-0-1-2-3-|-0-2-3-2-0-1-2-3-|-0-2-3-2-0-1-2-3-|-0-2-3-2-0-1-2-3-|


"ENDLESS SORROW" (TOLD YOU IT WASNT OVER...)
|------------------|-----3-(3)----------|
|------------------|-----3-(3)----------|
|------------------|-----0-(0)----------|
|--------4--(4)-5--|-(5)-0-(0)----------|
|-2--(2)-2--(2)-3--|-(3)-2-(2)--4-5-4-3-|
|-0--(0)-----------|-----3-(3)--2-3-2-1-|


|------------------|-----3-(3)----------|
|------------------|-----3-(3)----------|
|------------------|-----0-(0)----------|
|--------4--(4)-5--|-(5)-0-(0)----------|
|-2--(2)-2--(2)-3--|-(3)-2-(2)--4-5-4-3-|
|-0--(0)-----------|-----3-(3)--2-3-2-1-|


|------------------|-----3-(3)----------|-----------------|---------------|
|------------------|-----3-(3)----------|-----------------|---------------|
|------------------|-----0-(0)----------|-----------------|---------------|
|--------4--(4)-5--|-(5)-0-(0)----------|-----------------|---------------|
|-2--(2)-2--(2)-3--|-(3)-2-(2)--4-5-4-3-|-------2-2-2-3-3-|-3-------7--7--|
|-0--(0)-----------|-----3-(3)--2-3-2-1-|-0-0-0-----------|---3-3-3-5--5--|


|------------------|-----3-(3)----------|
|------------------|-----3-(3)----------|
|------------------|-----0-(0)----------|
|--------4--(4)-5--|-(5)-0-(0)----------|
|-2--(2)-2--(2)-3--|-(3)-2-(2)--4-5-4-3-|
|-0--(0)-----------|-----3-(3)--2-3-2-1-|


|------------------|-----3-(3)----------|
|------------------|-----3-(3)----------|
|------------------|-----0-(0)----------|
|--------4--(4)-5--|-(5)-0-(0)----------|
|-2--(2)-2--(2)-3--|-(3)-2-(2)--4-5-4-3-|
|-0--(0)-----------|-----3-(3)--2-3-2-1-|


|------------------|-----3-(3)----------|-----------------|---------------|
|------------------|-----3-(3)----------|-----------------|---------------|
|------------------|-----0-(0)----------|-----------------|---------------|
|--------4--(4)-5--|-(5)-0-(0)----------|-----------------|---------------|
|-2--(2)-2--(2)-3--|-(3)-2-(2)--4-5-4-3-|-------2-2-2-3-3-|-3-------7--7--|
|-0--(0)-----------|-----3-(3)--2-3-2-1-|-0-0-0-----------|---3-3-3-5--5--|


TRANSITION 
|-----------------|-----------------|-----------------|-----------------|
|-----------------|-----------------|-----------------|-----------------|
|-----------------|-----------------|-----------------|-----------------|
|-----------------|-----------------|-7-8-7-5-7-5-3-5-|-7-8-7-5-7-5-3-5-|
|-----------------|-----------------|-----------------|-----------------|
|-5-6-5-3-5-3-1-3-|-5-6-5-3-5-3-1-3-|-5-6-5-3-5-3-1-3-|-5-6-5-3-5-3-1-3-|


"DESECRATED"...
|-----------------|-----------1--1-|-----------------|-----------------|
|-----------------|-----------4--4-|-----------------|-----------------|
|-----------------|-----------3--3-|-----------------|-----------------|
|-----------------|-----------1--1-|-----------------|-----------------|
|-----------------|-----------1--1-|-----------------|-----------------|
|-0-0-0-0-0-0-0-0-|-0-0-0-0-0------|-0-0-0-0-0-0-0-0-|-7-8-7-5-7-5-3-5-|


|-----------------|-----------1--1-|-----------------|-----------------|
|-----------------|-----------4--4-|-----------------|-----------------|
|-----------------|-----------3--3-|-----------------|-----------------|
|-----------------|-----------1--1-|-----------------|-----------------|
|-----------------|-----------1--1-|-----------------|-----------------|
|-0-0-0-0-0-0-0-0-|-0-0-0-0-0------|-0-0-0-0-0-0-0-0-|-7-8-7-5-7-5-3-5-|


|-----------------|-----------------|-----------------|-----------------|
|-----------------|-----------------|-----------------|-----------------|
|-----------------|-----------------|-----------------|-----------------|
|-----------------|-----------------|-----------------|-----------------|
|-----------------|-----------------|-----------------|-----------------|
|-5-6-5-3-5-3-1-3-|-5-6-5-3-5-3-1-3-|-5-6-5-3-5-3-1-3-|-5-6-5-3-5-3-1-3-|


|-----------------|-----------1--1-|-----------------|-----------------|
|-----------------|-----------4--4-|-----------------|-----------------|
|-----------------|-----------3--3-|-----------------|-----------------|
|-----------------|-----------1--1-|-----------------|-----------------|
|-----------------|-----------1--1-|-----------------|-----------------|
|-0-0-0-0-0-0-0-0-|-0-0-0-0-0------|-0-0-0-0-0-0-0-0-|-7-8-7-5-7-5-3-5-|

[ Tab from: http://www.guitartabs.cc/tabs/i/into_eternity/absolution_of_the_soul_tab.html ]
|-----------------|-----------1--1-|-----------------|-----------------|
|-----------------|-----------4--4-|-----------------|-----------------|
|-----------------|-----------3--3-|-----------------|-----------------|
|-----------------|-----------1--1-|-----------------|-----------------|
|-----------------|-----------1--1-|-----------------|-----------------|
|-0-0-0-0-0-0-0-0-|-0-0-0-0-0------|-0-0-0-0-0-0-0-0-|-7-8-7-5-7-5-3-5-|


|-----------------|-----------------|-----------------|-----------------|
|-----------------|-----------------|-----------------|-----------------|
|-----------------|-----------------|-----------------|-----------------|
|-----------------|-----------------|-----------------|-----------------|
|-----------------|-----------------|-----------------|-----------------|
|-5-6-5-3-5-3-1-3-|-5-6-5-3-5-3-1-3-|-5-6-5-3-5-3-1-3-|-5-6-5-3-5-3-1-3-|


REVOLUTION  (...TALK ABOUT "ENDLESS"...)
|---------------------------------|---------------------------------|
|---------------------------------|---------------------------------|
|---------------------------------|---------------------------------|
|-9-9-9-9-9-9-9-9-9-9-9-9-7-7-7-7-|-5-5-5-5-5-5-5-5-5-5-5-5-5-5-5-5-|
|-7-7-7-7-7-7-7-7-7-7-7-7-5-5-5-5-|-3-3-3-3-3-3-3-3-3-3-3-3-3-3-3-3-|
|---------------------------------|---------------------------------|


|---------------------------------|------------------------------------|
|---------------------------------|------------------------------------|
|---------------------------------|------------------------------------|
|-5-5-5-5-5-5-5-5-5-5-5-5-5-5-5-5-|------------------------------------|
|-2-2-2-2-2-2-2-2-2-2-2-2-3-3-3-3-|-7-7-7-7-7-7-7-7-7-7-7-7-7-7-7-7----|
|---------------------------------|-5-5-5-5-5-5-5-5-5-5-5-5-5-5-5-5----|


|---------------------------------|---------------------------------|
|---------------------------------|---------------------------------|
|---------------------------------|---------------------------------|
|-9-9-9-9-9-9-9-9-9-9-9-9-7-7-7-7-|-5-5-5-5-5-5-5-5-5-5-5-5-5-5-5-5-|
|-7-7-7-7-7-7-7-7-7-7-7-7-5-5-5-5-|-3-3-3-3-3-3-3-3-3-3-3-3-3-3-3-3-|
|---------------------------------|---------------------------------|


|---------------------------------|------------------------------------|
|---------------------------------|------------------------------------|
|---------------------------------|------------------------------------|
|-5-5-5-5-5-5-5-5-5-5-5-5-5-5-5-5-|------------------------------------|
|-2-2-2-2-2-2-2-2-2-2-2-2-3-3-3-3-|-7-7-7-7-7-7-7-7-7-7-7-7-7-7-7-7----|
|---------------------------------|-5-5-5-5-5-5-5-5-5-5-5-5-5-5-5-5----|


|---------------------------------|---------------------------------|
|---------------------------------|---------------------------------|
|---------------------------------|---------------------------------|
|-9-9-9-9-9-9-9-9-9-9-9-9-7-7-7-7-|-5-5-5-5-5-5-5-5-5-5-5-5-5-5-5-5-|
|-7-7-7-7-7-7-7-7-7-7-7-7-5-5-5-5-|-3-3-3-3-3-3-3-3-3-3-3-3-3-3-3-3-|
|---------------------------------|---------------------------------|


|---------------------------------|------------------------------------|
|---------------------------------|------------------------------------|
|---------------------------------|------------------------------------|
|-5-5-5-5-5-5-5-5-5-5-5-5-5-5-5-5-|------------------------------------|
|-2-2-2-2-2-2-2-2-2-2-2-2-3-3-3-3-|-7-7-7-7-7-7-7-7-7-7-7-7-7-7-7-7----|
|---------------------------------|-5-5-5-5-5-5-5-5-5-5-5-5-5-5-5-5----|


|---------------------------------|---------------------------------|
|---------------------------------|---------------------------------|
|---------------------------------|---------------------------------|
|-9-9-9-9-9-9-9-9-9-9-9-9-7-7-7-7-|-5-5-5-5-5-5-5-5-5-5-5-5-5-5-5-5-|
|-7-7-7-7-7-7-7-7-7-7-7-7-5-5-5-5-|-3-3-3-3-3-3-3-3-3-3-3-3-3-3-3-3-|
|---------------------------------|---------------------------------|


|---------------------------------|------------------------------------|
|---------------------------------|------------------------------------|
|---------------------------------|------------------------------------|
|-5-5-5-5-5-5-5-5-5-5-5-5-5-5-5-5-|------------------------------------|
|-2-2-2-2-2-2-2-2-2-2-2-2-3-3-3-3-|-7-7-7-7-7-7-7-7-7-7-7-7-7-7-7-7----|
|---------------------------------|-5-5-5-5-5-5-5-5-5-5-5-5-5-5-5-5----|


|---------------------------------|---------------------------------|
|---------------------------------|---------------------------------|
|---------------------------------|---------------------------------|
|-9-9-9-9-9-9-9-9-9-9-9-9-7-7-7-7-|-5-5-5-5-5-5-5-5-5-5-5-5-5-5-5-5-|
|-7-7-7-7-7-7-7-7-7-7-7-7-5-5-5-5-|-3-3-3-3-3-3-3-3-3-3-3-3-3-3-3-3-|
|---------------------------------|---------------------------------|


|---------------------------------|------------------------------------|
|---------------------------------|------------------------------------|
|---------------------------------|------------------------------------|
|-5-5-5-5-5-5-5-5-5-5-5-5-5-5-5-5-|------------------------------------|
|-2-2-2-2-2-2-2-2-2-2-2-2-3-3-3-3-|-7-7-7-7-7-7-7-7-7-7-7-7-7-7-7-7----|
|---------------------------------|-5-5-5-5-5-5-5-5-5-5-5-5-5-5-5-5----|


|---------------------------------|---------------------------------|
|---------------------------------|---------------------------------|
|---------------------------------|---------------------------------|
|-9-9-9-9-9-9-9-9-9-9-9-9-7-7-7-7-|-5-5-5-5-5-5-5-5-5-5-5-5-5-5-5-5-|
|-7-7-7-7-7-7-7-7-7-7-7-7-5-5-5-5-|-3-3-3-3-3-3-3-3-3-3-3-3-3-3-3-3-|
|---------------------------------|---------------------------------|


|---------------------------------|------------------------------------|
|---------------------------------|------------------------------------|
|---------------------------------|------------------------------------|
|-5-5-5-5-5-5-5-5-5-5-5-5-5-5-5-5-|------------------------------------|
|-2-2-2-2-2-2-2-2-2-2-2-2-3-3-3-3-|-7-7-7-7-7-7-7-7-7-7-7-7-7-7-7-7----|
|---------------------------------|-5-5-5-5-5-5-5-5-5-5-5-5-5-5-5-5----|


|---------------------------------|---------------------------------|
|---------------------------------|---------------------------------|
|---------------------------------|---------------------------------|
|-9-9-9-9-9-9-9-9-9-9-9-9-7-7-7-7-|-5-5-5-5-5-5-5-5-5-5-5-5-5-5-5-5-|
|-7-7-7-7-7-7-7-7-7-7-7-7-5-5-5-5-|-3-3-3-3-3-3-3-3-3-3-3-3-3-3-3-3-|
|---------------------------------|---------------------------------|


|---------------------------------|------------------------------------|
|---------------------------------|------------------------------------|
|---------------------------------|------------------------------------|
|-5-5-5-5-5-5-5-5-5-5-5-5-5-5-5-5-|------------------------------------|
|-2-2-2-2-2-2-2-2-2-2-2-2-3-3-3-3-|-7-7-7-7-7-7-7-7-7-7-7-7-7-7-7-7----|
|---------------------------------|-5-5-5-5-5-5-5-5-5-5-5-5-5-5-5-5----|


|---------------------------------|---------------------------------|
|---------------------------------|---------------------------------|
|---------------------------------|---------------------------------|
|-9-9-9-9-9-9-9-9-9-9-9-9-7-7-7-7-|-5-5-5-5-5-5-5-5-5-5-5-5-5-5-5-5-|
|-7-7-7-7-7-7-7-7-7-7-7-7-5-5-5-5-|-3-3-3-3-3-3-3-3-3-3-3-3-3-3-3-3-|
|---------------------------------|---------------------------------|


|---------------------------------|------------------------------------|
|---------------------------------|------------------------------------|
|---------------------------------|------------------------------------|
|-5-5-5-5-5-5-5-5-5-5-5-5-5-5-5-5-|------------------------------------|
|-2-2-2-2-2-2-2-2-2-2-2-2-3-3-3-3-|-7-7-7-7-7-7-7-7-7-7-7-7-7-7-7-7----|
|---------------------------------|-5-5-5-5-5-5-5-5-5-5-5-5-5-5-5-5----|


|-----------------|-----------1--1-|-----------------|-----------------|
|-----------------|-----------4--4-|-----------------|-----------------|
|-----------------|-----------3--3-|-----------------|-----------------|
|-----------------|-----------1--1-|-----------------|-----------------|
|-----------------|-----------1--1-|-----------------|-----------------|
|-0-0-0-0-0-0-0-0-|-0-0-0-0-0------|-0-0-0-0-0-0-0-0-|-7-8-7-5-7-5-3-5-|


|-----------------|-----------1--1-|-----------------|-----------------|
|-----------------|-----------4--4-|-----------------|-----------------|
|-----------------|-----------3--3-|-----------------|-----------------|
|-----------------|-----------1--1-|-----------------|-----------------|
|-----------------|-----------1--1-|-----------------|-----------------|
|-0-0-0-0-0-0-0-0-|-0-0-0-0-0------|-0-0-0-0-0-0-0-0-|-7-8-7-5-7-5-3-5-|


Tablature Legend
----------------
 h   - hammer-on
 p   - pull-off
 b   - bend
 pb  - pre-bend
 r   - bend release (if no number after the r, then release immediately)
 /\  - slide into or out of (from/to "nowhere")
 s   - legato slide
 S   - shift slide
  - natural harmonic
[n]  - artificial harmonic
n(n) - tapped harmonic
 ~   - vibrato
 tr  - trill
 T   - tap
 TP  - trem. picking
 PM  - palm muting
\n/  - tremolo bar dip; n = amount to dip
 \n  - tremolo bar down
 n/  - tremolo bar up
/n\  - tremolo bar inverted dip
 =   - hold bend; also acts as connecting device for hammers/pulls
   - volume swell (louder/softer)
 x   - on rhythm slash represents muted slash
 o   - on rhythm slash represents single note slash

Misc Legend
-----------
 |  - bar
||  - double bar
||o - repeat start
o|| - repeat end
*|  - double bar (ending)
 :  - bar (freetime)
 $  - Segno
 &  - Coda
Tempo markers -  = BPM(8/16=s8/s16), where s8 = swing 8ths, s16 = swing 16ths


***************************************************************************************
* Generated using Power Tab Editor by Brad Larsen - http://powertab.guitarnetwork.org *
***************************************************************************************
Comments