Interpol - The New Chords & Tabs

 

The New Chords & Tabs

Interpol Chords & Tabs

Version: 4 Type: Tab 0 ratings
1 star 2 stars 3 stars 4 stars 5 stars
comments

The New Tab

   
Interpol
The New

Guitar 1

"I wish I could live free..."
e|---------------------------------|
B|---------------------------------|
G|---------------------------------|
D|---------------------------------| 7x
A|-7-7-7-7-7-7-7-7-8-8-8-8-8-8-8-8-|
E|---------------------------------|

"Baby, my heart's been breaking..."
e|---3-----3-----3-----3-----3-----3-----3-----3-----3-----3-------|
B|-5-----5-----5-----5-----5-----5-----5-----5-----5-----5-----5-0-|
G|-----0-----0-----0-----0-----0-----0-----0-----0-----0-----0-----|
D|-----------------------------------------------------------------|
A|-----------------------------------------------------------------|
E|-----------------------------------------------------------------|

"I gave a lot to you..."
e|-----0-------0-------1-------1-----0-------0-------1-------1---|
B|---1---1---1---0---3---3---3-----1---1---1---1---3---3---3---3-|
G|-0-------0-------0-------4-----2-------2-------2-------2-------| 3x
D|---------------------------------------------------------------|
A|---------------------------------------------------------------|
E|---------------------------------------------------------------|

e|-----0-------0-------1-------1-----0-------0-------0-------0---|
B|---1---1---1---0---3---3---3-----1---1---1---1---1---1---1---1-|
G|-0-------0-------0-------4-----2-------2-------0-------0-------|
D|---------------------------------------------------------------|
A|---------------------------------------------------------------|
E|---------------------------------------------------------------|

"I can't pretend"
e|-----------------------------------------------|
B|-5-//--3-//---0-0-0-0-0-0-0-0-0-0-0-0--0-0-0-0-|
G|-5-//--4-//---4-4-4-2-2-2-4-4-4-4-4-4--4-4-4-4-|
D|--------------------------------0-0-0--0-0-0-0-|
A|-----------------------------------------------|
E|-----------------------------------------------|

e|------------------------------------------------|
B|-5-//---3-//---0-0-0-0-0-0-0-0-0-0-0-0--0-0-0-0-|
G|-5-//---4-//---2-2-2-5-5-5-4-4-4-4-4-4--4-4-4-4-|
D|---------------------------------0-0-0--0-0-0-0-|
A|------------------------------------------------|
E|------------------------------------------------|

When singing stops
e|------------|
B|------------|
G|-4-//--5-//-| 4x
D|------------|
A|------------|
E|------------|

e|-------------|
B|-------------|
G|-4-//--3b(4)-| Bend 1/2 step
D|-------------|
A|-------------|
E|-------------|

Play into "You're looking alright tonight"
e|------|
B|-0-//-|
G|------|
D|------|
A|------|
E|------|
Detune 1/2 step down & retune 1/2 step up while playing

e|---------------------------------|
B|---------------------------3-----|
G|-------------0-----4-4---4---4-2-|
D|-----4-4-------3-----------------|
A|---------0-0-----2-----2---------|
E|-2-2-----------------------------|
                                       6x
e|---------------------------------|
B|---------------------------------|
G|-------------0-----4-4---2-0---0-|
D|-----4-4-------3-----------------|
A|---------0-0-----2-----2-----2---|
E|-2-2-----------------------------|

e|---------------------------------------|
B|---------------------------------------|
G|---------------------------------------|
D|---------------------------------------| 2x
A|-14---9--12----7--10--9---5--7-7--9~~~-|
E|------0--------------------------------|
[ Tab from: http://www.guitartabs.cc/tabs/i/interpol/the_new_tab_ver_4.html ]
Outro
e|------------------------|
B|-15-//--14-14-14--17-//-|
G|-16-//--16-16-16--16-//-|
D|------------------------|
A|------------------------|
E|------------------------|

e|--------------|
B|-14-//--15-//-|
G|-18-//--19-//-|
D|--------------|
A|--------------|
E|--------------|
                                      3x
e|-------------------------------|
B|-14-//--15-15-15--15-//--15-//-|
G|-15-//--16-16-16--12-//--11-//-|
D|-------------------------------|
A|-------------------------------|
E|-------------------------------|

e|--------------------------|
B|-15-15-15-15--15-//-14-//-|
G|--------------12-//-11-//-|
D|-14-14-14-14--------------|
A|--------------------------|
E|--------------------------|

End On
e|-------|
B|-14~~~-|
G|-11~~~-|
D|-------|
A|-------|
E|-------|

Guitar 2

"I wish I could live free"
e|----------------------------------------|
B|-6~~~--------6~~~-------6~~~------------|
G|-7~~~--------5~~~-------7~~~-------7~~~-|
D|----------------------------------------| 7x
A|----------------------------------------|
E|----------------------------------------|

"Baby, my heart's been breaking"
e|---------------------------------5----8-|
B|----------6------6-----6------6--5----8-|
G|-5~~~-----7------7-----7------7--5----0-|
D|----------------------------------------|
A|----------------------------------------|
E|----------------------------------------|
(each group of 2 notes is played at the beginning of a sentence)

"I can't pretend"
e|-------------------------------------------|
B|-6----6----6----6----6----6----6--6--6---6-|
G|-7----7----7----7----7----7----7--7--7---7-|
D|-------------------------------------------|
A|-------------------------------------------|
E|-------------------------------------------|
                                                 2x
e|--------------------------5----8-|
B|-6----6----6----6----6----5----8-|
G|-7----7----7----7----7----5----0-|
D|---------------------------------|
A|---------------------------------|
E|---------------------------------|

e|---------------------------------|
B|-----6-------6-------6-------6---|
G|-7-7---7-7-7---7-7-7---7-7-7---7-|
D|---------------------------------|
A|---------------------------------|
E|---------------------------------|
                                       6x
e|---------------------------------|
B|-----6-------6-------6-------5---|
G|-5-5---5-5-5---5-5-5---5-5-5---5-|
D|---------------------------------|
A|---------------------------------|
E|---------------------------------|

e|------|
B|-0-//-|
G|------|
D|------|
A|------|
E|------|
Detune 1/2 step down & retune 1/2 step up while playing

"You're looking alright tonight"
e|--------------|
B|-12-//--11-//-|
G|--------------|
D|--------------|
A|--------------|
E|--------------|

When drums restart
e|---------------------|
B|---------------------|
G|-14-//--14-//--14-//-|
D|-16-//--16-//--16-//-|
A|--------14-//--------|
E|---------------------|

Outro
e|-----------------------------------------------|
B|-----------------------------------------------|
G|-16-//--11-//--14-//--9-//--12-//--11-//--7-//-| 2x
D|-----------------------------------------------|
A|-14-//---9-//--12-//--7-//--10-//---9-//--5-//-|
E|-----------------------------------------------|

e|-------------|
B|-------------|
G|-11-//--7~~~-|
D|-------------|
A|-9--//--5~~~-|
E|-------------|
Comments