Interpol - The New Chords & Tabs

 

The New Chords & Tabs

Interpol Chords & Tabs

Version: 3 Type: Tab 0 ratings
1 star 2 stars 3 stars 4 stars 5 stars
comments

The New Tab

e|---------------------------------------------------------------------|
B|---------------------------------------------------------------------|
G|---------------------------------------------------------------------|
D|---------------------------------------------------------------------|x2
A|------7-7-8-7-------5-5-7-8-7-----7-7-8-7------5-5-7-8-7-------------|
E|--5-5---------5-3-3------------5-5--------4-2-2----------------------|

[ Tab from: http://www.guitartabs.cc/tabs/i/interpol/the_new_tab_ver_3.html ]
e|---------------------------------------------------------------------|
B|---------------------------------------------------------------------|
G|---------------------------------------------------------------------|
D|---------------------------------------------------------5-3-2-------|
A|------7-7-8-7-------5-5-7-8-7-----7-7-8-7------5-5-7-8-7-------3-----|
E|--5-5---------5-3-3------------5-5--------4-2-2-------------------7-8|

and so on...
Comments