Interpol - Take You On A Cruise Chords & Tabs

 

Take You On A Cruise Chords & Tabs

Interpol Chords & Tabs

Version: 1 Type: Tab 0 ratings
1 star 2 stars 3 stars 4 stars 5 stars
comments

Take You On A Cruise Tab

   
Interpol
Take You On a Cruise

Ahh... okay my last version mostly sucked. Here's the parts
of mine that i managed to get right joined with the guitar pro version.

Verse 

Guitar 1 (delay effect)
e|---------------------------------------|
B|---------------------------------------|
G|---------------------------------------|
D|-9~~~-7~~~-/14~~~-12~~~-(x3)-11--12~~~-|
A|---------------------------------------|
E|---------------------------------------|

Guitar 2 (light distortion) I split it so it's easier to read.
"I'm timeless like a broken watch..."
e|-------------|-------------|-----------------|---------------|
B|-7-7-x-7-x-7-|-7-7-7-7-7-x-|-8-8-8-x-x-8-x-8-|-8-8-x-x-8-8-x-|
G|-7-7-x-7-x-7-|-7-7-7-7-7-x-|-9-9-9-x-x-9-x-9-|-7-7-x-x-7-7-x-|
D|-9-9-x-9-x-9-|-7-7-9-9-7-x-|-9-9-9-x-x-9-x-9-|-9-9-x-x-9-9-x-|
A|-------------|-------------|-----------------|----------(x6)-|
E|-------------|-------------|-----------------|---------------|

Pre-Chorus

Guitar 1 (delay effect)
"Baby don't you try to find me..."
e|-------------------------|-------|
B|-------------------------|-------|
G|-------------------------|-------|
D|-14~~~-17~~~-16~~~-14~~~-|-16~~~-|
A|-------------------------|-------|
E|-------------------------|-------|

Guitar 2 (delay effect)
e|-----------------------------------------------------------------|
B|---------------------------------8---8---8---8---7---7---7---7---|
G|-7---7---7---7---6---6---6---6-----9---9---9---9---7---7---7---7-|
D|---9---9---9---9---7---7---7---7---------------------------------|
A|------------------------------------------------------------(x2)-|
E|-----------------------------------------------------------------|

e|-5---5---5---5---5---5---5---5---|
B|-7---7---7---7---7---7---7---7---|
G|---7---7---7---7---7---7---7---7-|
D|---------------------------------|
A|---------------------------------|
E|---------------------------------|

Chorus

Guitar 1 (light distortion)
"Along the way tears drown in the wake of delight..."
e|------------------------9--9--9--9--9---------------------------------|
B|-8-8-8-10-10-8-8-8-8-8-10-10-10-10-10-7-7-7-7-7-7-7-7-7-7-7-7-7-7-7-7-|
G|-9-9-9--9--9-9-9-9-9-9--9--9--9--9--9-7-7-7-7-7-7-7-7-7-7-7-7-7-7-7-7-|
D|-9-9-9--9--9-9-9-9-9-9--9--9--9--9--9-9-9-9-9-9-9-9-9-7-7-7-7-7-7-7-7-|
A|-----------------------------------------------------------------(x4)-|
E|----------------------------------------------------------------------|
[ Tab from: http://www.guitartabs.cc/tabs/i/interpol/take_you_on_a_cruise_tab.html ]
Guitar 2 (light distortion)
e|-12--12--12--12--12--12--12--12--10--10--10--10--9--9--9--9-|
B|------------------------------------------------------------|
G|------------------------------------------------------------|
D|------------------------------------------------------------|
A|------------------------------------------------------------|
E|------------------------------------------------------------|

e|-12--12--12--12--12--12--12--12--10--10--10--10--9--9--14--14-|
B|--------------------------------------------------------------|
G|--------------------------------------------------------------|
D|--------------------------------------------------------------|
A|---------------------------------------------------------(x2)-|
E|--------------------------------------------------------------|

Bridge

Guitar 2 (light distortion)
e|------------------------------------------------------------------|
B|-7--7--7--7--7--7--7--7--7--7--7--7--7--7--7--7--8--8--8--8--8--8-|
G|-7--7--7--7--7--7--7--7--7--7--7--7--7--7--7--7--9--9--9--9--7--7-|
D|-9--9--9--9--9--9--9--9--9--9--9--9--7--7--7--7--9--9--9--9--9--9-|
A|------------------------------------------------------------------|
E|------------------------------------------------------------------|

Interlude

Guitar 1 (light distortion)
"I am a scavenger between the sheets of union..."
e|--------------------------------------------------------------------------|
B|-7-7-7-7-7-7-7-7-7-7-7-7-7-7-7-7-8-8-8-8-8-8-8-8-8-8-8-10-10-10-10-10-----|
G|-7-7-7-7-7-7-7-7-7-7-7-7-7-7-7-7-9-9-9-9-9-9-9-9-7-7-7--7--7--7--7--7-----|
D|-9-9-9-9-9-9-9-9-7-7-7-7-7-7-7-7-9-9-9-9-9-9-9-9-9-9-9--9--9--9--9--9-----|
A|---------------------------------------------------------------------(x4)-|
E|--------------------------------------------------------------------------|

Guitar 2 (light distortion)
e|-----------------------------------------------------------------------|
B|-7-7-7-7-7-7-7-7-7-7-7-7-7-7-7-7-8-8-8-8-8-8-8-8-8-8-8-8-8-8-8-8-8-----|
G|-7-7-7-7-7-7-7-7-6-6-6-6-6-6-6-6-9-9-9-9-9-9-9-9-9-9-9-7-7-7-7-7-7-----|
D|-----------------------------------------------------------------------|
A|------------------------------------------------------------------(x4)-|
E|-----------------------------------------------------------------------|

Pre-Chorus then Chorus Again

Bridge 2 

Guitar 2 (light distortion)
"You'll never see a finer ship..."
e|-----------7~~~-|
B|-7~~~-7~~~-8~~~-|
G|-7~~~-7~~~-9~~~-|
D|-7~~~-9~~~-9~~~-|
A|----------------|
E|----------------|

Outro

Guitar 1 (delay effect)    End On
e|------------------------|-------|
B|------------------------|-------|
G|------------------------|-------|
D|-9~~~-7~~~-/14~~~-12~~~-|-14~~~-|
A|------------------------|-------|
E|------------------------|-------|

Guitar 2 (delay effect)        
"White goddess, red goddess..." End On 
e|-----------------------------|-------|
B|-----------------------------|-------|
G|-----------------------------|-------|
D|-9~~~-16~~~-7~~~-17~~~-14~~~-|-17~~~-|
A|-----------------------------|-------|
E|-----------------------------|-------|
Comments