Interpol - Stella Was A Diver And She Was Always Down Chords & Tabs

 

Stella Was A Diver And She Was Always Down Chords & Tabs

Interpol Chords & Tabs

Version: 1 Type: Tab 0 ratings
1 star 2 stars 3 stars 4 stars 5 stars
comments

Stella Was A Diver And She Was Always Down Tab

Interpol
Stella Was a Diver and She Was Always Down

Guitar 1 
e|--5--//----5--//----5--//--| 
B|--5--//----5--//----5--//--| 
G|--5--//----5--//----5--//--| 
D|--7--//----7--//----7--//--|
A|--8--//----5--//----0--//--|
E|---------------------------| 

"...game"         "days     daze     days" x3    "days daze days" 
e|--5--/-/-/-/------5--//----5--//----5--///-------5--//--| 
B|--5--/-/-/-/------5--//----5--//----5--///-------5--//--| 
G|--5--/-/-/-/------5--//----5--//----5--///-------5--//--| 
D|--7--/-/-/-/------7--//----7--//----7--///-------7--//--| 
A|--8--/-/-/-/------5--//----0--//----5--///-------5--//--| 
E|--------------------------------------------------------| 

Pre-Chorus
"She was alright..." 
e|----------7-7-5-5-----------------------------------| 
B|--5-5-6-6-6-6-6-6-6-6-6-6-6-6-6-6-6-6-6--6-6-6-6-6--| 
G|--5-5-5-5-5-5-5-5-5-5-5-5-5-5-5-5-5-5-5--5-5-5-5-5--| x4 
D|--7-7-7-7-7-7-7-7-7-7-7-7-7-7-7-7-7-7-7--7-7-7-7-7--| 
A|----------------------------------------------------| 
E|----------------------------------------------------| 

"Airtight..."
e|--5-5-5-5-5-5-5-5--|
B|--5-5-5-5-5-5-5-5--| 
G|--5-5-5-5-5-5-5-5--| 
D|--7-7-7-7-7-7-7-7--| 
A|-------------------| 
E|-------------------| 

Chorus
"She broke away, broke away" 
e|-------------------------| 
B|-------------------------| 
G|-------------------------| 
D|--7--//---7--//---7--//--| x4 
A|--5--//---5--//---8--//--| 
E|----------6--------------| 
1st time don't play the 1st chord 
3rd time play the 1st chord twice 

Verse 
Pre-chorus
Chorus 

Outro
e|---------------------------------| 
B|--6---6---6---6---6---6---6---6--| 
G|--7---7---7---7---7---7---7---7--|
D|---------------------------------| 
A|---------------------------------| 
E|---------------------------------| 
Until the end 

Guitar 2
Main Riff
e|---------------------------------------------------| 
B|---------------------------------------------------| 
G|--------14----------14----------14----------14-----| 
D|--15-15----15-15-15----15-15-15----15-14-14----14--| 
A|---------------------------------------------------| 
E|---------------------------------------------------| 
[ Tab from: http://www.guitartabs.cc/tabs/i/interpol/stella_was_a_diver_and_she_was_always_down_tab.html ]
e|---------------------------------------------------| 
B|--------13----------13----------13----------13-----| 
G|---------------------------------------------------| 
D|--15-15----15-15-15----15-15-15----15-14-14----14--| 
A|---------------------------------------------------| 
E|---------------------------------------------------| 
      slide down 
e|--13-13-13-13-13-----------------------------------| 
B|--13-13-13-13-13-----------------------------------| 
G|--14-14-14-14-14-----------------------------------| x3 
D|--15-15-15-15-15----------12-12-12-14-14-14-14-14--| 
A|---------------------------------------------------| 
E|---------------------------------------------------| 

e|-----------------------------|
B|-----------------------------|
G|---------7--9--10-12--14-//--|
D|--15-------------------------|
A|---------5--7--8--10--12-//--|
E|-----------------------------|

e|--------------------------------------| 
B|--10--//-12--//-13--//-13--//-13--//--| 
G|---9--//--9--//--9--//-10--//--9--//--| 
D|---7--//--9--//-10--//-10--//-10--//--| 
A|--------------------------------------| 
E|--------------------------------------| 

"Airtight..." 
e|---------------------------| 
B|--13-13-13-13-13-13-13-13--| 
G|--10-10-10--9--9--9--9--9--| 
D|--10-10-10-10-10-10-10-10--| 
A|---------------------------| 
E|---------------------------| 

Chorus
"She broke away, broke away" 
e|-------------------------| 
B|-------------------------| 
G|-------------------------| 
D|--7--//---7--//---7--//--| x4 
A|--5--//---5--//---8--//--| 
E|----------6--------------| 
1st time don't play the 1st chord 
3rd time play the 1st chord twice 

Verse 
Pre-chorus
Chorus 

Outro
e|--------------------------------------------| 
B|--------------------------------------------| 
G|--5--7---5--7---9--9-9-9-7-7-7-7-5~~~-7~~~--| 
D|--------------------------------------------| 
A|--------------------------------------------| 
E|--------------------------------------------| 
Until the end 

Last time 
e|--------------------------------------------------| 
B|--------------------------------------6~~~--6~~~--| 
G|--5--7---5--7---9--9-9-9-7-7-7-7-5~~~-------7~~~--| 
D|--------------------------------------------------| 
A|--------------------------------------------------| 
E|--------------------------------------------------|

The other one was kinda confusing, so here you go.
Comments