Interpol - Say Hello To The Angels Chords & Tabs

 

Say Hello To The Angels Chords & Tabs

Interpol Chords & Tabs

Version: 1 Type: Tab 0 ratings
1 star 2 stars 3 stars 4 stars 5 stars
comments

Say Hello To The Angels Tab

Say hello to the angels 


guit1 

----------------------------------------------------- 
----------------------------------------------------- 
----------------------------------------------------- 
----------------------------------------------------- 
--55555555555555555555555555555554-//---------------- 
----------------------------------------------------- 

"watch silent parts" 
--5-5-5--5-5-5555----//------------------------------ 
--5-5-5--5-5-5555----//------------------------------ 
--5-5-5--5-5-5555----//------------------------------ 
----------------------------------------------------- 
----------------------------------------------------- 
----------------------------------------------------- 

"1,2,3" 
--5--------5------- 
--5--------5------- 
--5--------5------- 
------------------- 
------------------- 
------------------- 


-5-5-5--5-5-5555----//----888----5--//-----888----5--//---555---- 
-5-5-5--5-5-5555----//----888----5--//-----888----5--//---666---- 
-5-5-5--5-5-5555----//----555----5--//-----555----5--//---555---- *4 
----------------------------------------------------------------- 
----------------------------------------------------------------- 
----------------------------------------------------------------- 

"this is a concept" 
------------------------------- 
-5-5-5-5---//----6-6-6-6------- 
-5-5-5-5---//----7-7-7-7------- 
-7-5-7-5---//----8-8-8-8------- 
------------------------------- 
------------------------------- 

intro 
2nd verse 

outro 
--555--//---8-8-8------- 
--666--//---8-8-8------- 
--777--//---7-7-7------- 
------------------------ 
------------------------ 
------------------------ 

guitar 2 

-5-5-5-5-5-5-5-5-5-5-5-5-5-5-5-5--------------------- 
-6-6-6-6-6-6-6-6-6-6-6-6-6-6-8-6--------------------- 
-7-7-7-7-7-7-7-7-7-7-7-7-7-7-7-7--------------------- 
----------------------------------------------------- 
----------------------------------------------------- 
----------------------------------------------------- 
[ Tab from: http://www.guitartabs.cc/tabs/i/interpol/say_hello_to_the_angels_tab.html ]
----------------------------------------------------------------------- 
-6-5----6--5-5----6-5----6--5-5---------------------------------------- 
-----7-5------7-5-----7-5------7-5---5-55-5--5-5-55-5-5-5-5--5-5-55-5-- 
----------------------------------------------------------------------- 
----------------------------------------------------------------------- 
----------------------------------------------------------------------- 


"1,2,3" 
--5--------5------- 
--5--------5------- 
--5--------5------- 
------------------- 
------------------- 
------------------- 

--10-//----8-//-----12-//---13----------------------- 
--10-//----8-//-----13-//---13----------------------- 
----------------------------------------------------- 
----------------------------------------------------- 
----------------------------------------------------- 
----------------------------------------------------- 


"this is a concept" 
------------------------------- 
-5-5-5-5---//----6-6-6-6------- 
-5-5-5-5---//----7-7-7-7------- 
-7-5-7-5---//----8-8-8-8------- 
------------------------------- 
------------------------------- 

let ring 
----------------------------------------------------- 
-10-------8-------------10-------8------------------- 
----10-10---10-10--9-10----10-10---10-100-9-10------- 
----------------------------------------------------- 
----------------------------------------------------- 
----------------------------------------------------- 

----------------------------------------------------- 
--15-------13-------13-----11-------10--------8------ 
-----14-14----14-14----14-----10-10----110-10---10--- 
----------------------------------------------------- 
----------------------------------------------------- 
----------------------------------------------------- 

intro 
2nd verse 

outro: 

chord noise 
------------------------------------------------------------ 
------------------------------------------------------------ 
--14---10--14--10--9---10--9---10--14----10--14---10--9----- 
------------------------------------------------------------ 
--12---8---12--8---7---8---7---8---12----8---12---8---7----- 
------------------------------------------------------------
Comments