Interpol - Say Hello To The Angels Chords & Tabs

 

Say Hello To The Angels Chords & Tabs

Interpol Chords & Tabs

Version: 1 Type: Bass Tab 0 ratings
1 star 2 stars 3 stars 4 stars 5 stars
comments

Say Hello To The Angels Bass Tab

   
Interpol
Say Hello To The Angels

Intro (repeat a while)
G|-----------------------------------------|
D|-----------------------------------------|
A|-5555-5555-5555-5555-5555-5555-5555-5555-|
D|-----------------------------------------|

Verse x3
G|------------------------------------------------------------------|
D|-0--33-0-33---33-0--33-0-33---33----------------------------------|
A|---------------------------------0--33-0-33---33-0--33-0-33---3-4-|
D|------------------------------------------------------------------|

x1
G|------------------------------------------------------------------|
D|-0--33-0-33---33-0--33-0-33---33----------------------------------|
A|---------------------------------0--33-0-33---33-0--33-0/33333333-|
D|------------------------------------------------------------------|

x1
G|-----------|
D|-----------|
A|-----------|
D|-3~~~-3~~~-|

Chorus x1
G|----------------------------7---5----------------------------------|
D|---------3p3p3p3p--------------------------------------------------|
A|-0-0-0-0----------0-0-0-0-5---3---0--33-0-33---33-3--33-3-33---2-1-|
D|-------------------------------------------------------------------|

x2
G|----------------------------7---5------------5---------------------|
D|---------3p3p3p3p--------------------------------------------------|
A|-0-0-0-0----------0-0-0-0-5---3---0--33-0-33---33-3--33-3-33---2-1-|
D|-------------------------------------------------------------------|

x1
G|----------------------------7---5------------5-----------------------------|
D|---------3p3p3p3p----------------------------------------------------------|
A|-0-0-0-0----------0-0-0-0-5---3---0--33-0-33---33-3--33--/1313131313131313-|
D|---------------------------------------------------------------------------|

Bridge x1
G|----------------------------------------------------------|
D|-------3~~-------22-22--3-3-3-3-3-3-2-2-------------------|
A|-0~~~~-----0~~~~-------0-0-0-0-0-0-0-0--0-0-0-0-0000-1111-|
D|----------------------------------------------------------|
[ Tab from: http://www.guitartabs.cc/tabs/i/interpol/say_hello_to_the_angels_btab.html ]
G|------------------------------------------------------------------------|
D|-------------------------------------------------------------7-7-7-77-7-|
A|-3-3-3-33----------3-3-3-33-5-5-5-55-0-0-0-0-0-0-0-0-1-1-1-1------------|
D|----------1-1-1-11------------------------------------------------------|

G|-------------------------------------------------------------------|
D|-------------------------------------------------------------------|
A|-3-3-3-3-3-------3-3-3-3-5-5-5-55-0-0-0-0-0-0-0-0-1p1p1p1p---------|
D|-----------3-3-3-------------------------------------------8p8p8p-|

Intro (repeat a while)
G|-----------------------------------------------------------------|
D|-----------------------------------------------------------------|
A|-5-5-5-5-5-5-5-5-5-5-5-5-5-5-5-5-5-5-5-5-5-5-5-5-5-5-5-5-5-5-5-5-|
D|-----------------------------------------------------------------|

Chorus x1
G|----------------------------7---5------------5---------------------|
D|---------3p3p3p3p--------------------------------------------------|
A|-0-0-0-0----------0-0-0-0-5---3---0--33-0-33---33-3--33-3-33---2-1-|
D|-------------------------------------------------------------------|

G|----------------------------7---5----------------------------------|
D|---------3p3p3p3p--------------------------------------------------|
A|-0-0-0-0----------0-0-0-0-5---3---0--33-0-33---33-3--33--/33333333-|
D|-------------------------------------------------------------------|

Bridge x1			x8
G|--------------------|-----------------|
D|-------3~~~~--------|-----------------|
A|--------------------|-----------------|
D|-3~~~~-------2-3----|-3--3--7-4-2-3-2-|

Outro 1 x2
G|-----------------------------------------|
D|-----------------------------------------|
A|-----------------------------------------|
D|-10-10-10-10-10-10-10-105-5-5-53-3-3-3-|

Outro 2 x2
G|-------------------------------------|
D|-------------------------------------|
A|-------------------------------------|
D|-2-2-2-2-2-2-2-2-3-3-3-3/10-10-10-10-|

Outro 1 x2
Outro 2 x2
Comments