Interpol - Pda Chords & Tabs

 

Pda Chords & Tabs

Interpol Chords & Tabs

Version: 2 Type: Tab 0 ratings
1 star 2 stars 3 stars 4 stars 5 stars
comments

Pda Tab

guitar 1
----------------------------------------------------------|
--------------------------------------7--sl-12-//--10--//-|
----------------------------------------------------------|
--------------------9-//-7-//-9-//------------------------|
-9--//-----------------------------9-//-------------------|
-7-----10-10-10-10----------------------------------------|

--------------------------------------------------------------------|
--------------------------------------------------------------------|
--12-//--11-//--------11-//--12-//---11--//--------11-//--12-//-----|
----------------12-//------------------------12//-------------------|
--------------------------------------------------------------------|
--------------------------------------------------------------------|


(sleep tight)
---------------------0-0-0---------------------------|
---------------------9-9-9---------------------------|
--6--//---6-//--6----------------*3------------------|
--9--//---0-//--7--//--------------------------------|
--7--//---------0------------------------------------|
-----------------------------------------------------|


-----------------------------------------------------|
-----------------------------------------------------|
--8--//----8--//----8---//-------*2------------------|
--9--//----9--//----9---//---------------------------|
--7--//----9--//----6---//---------------------------|
-----------7--//-------------------------------------|

back to verse
[ Tab from: http://www.guitartabs.cc/tabs/i/interpol/pda_tab_ver_2.html ]
outro
-----------------------------------------------------|
-----------------------------------------------------|
---8--//--(--8--//---8--//---8--//----)-----adlib----|
----------(--9--//---9--//---6--//----)--------------|
----------(---------7--//-------------)--------------|
-----------------------------------------------------|


guit 2:

-----------------------------------------2---//------------------2---//---------|
-----------------------------------------2---//------------------2---//---------|
-------------------------(0)-------------2---//------------------2---//---------|  *2
-----------------------------------------0---//------------------0---//---------|
--9--//---------------9--//----7--//--------------------9--//-------------------|
--7--//--10-10-10-10--7--//----5--//--------------------7--//-------------------|

-----------------------------------------------------|
---------------------------------------------12-//---|
--7-//-sl-14-//---------------------11-///-----------|  *2
----------------11-//--12-//--9-//-------------------|
-----------------------------------------------------|
-----------------------------------------------------|

chorus: see gt1 +

-----------------|
-----------------|
---7-7-7-7-7-7-7-|
---9-9-9-9-9-9-9-|
---7-7-7-6-6-6-6-|
-----------------|

back to verse


outro:

same as gt1 +:
-----------------------------------|
---------------------7-------------|
----8---8---8--//------8---8-------|
--9---9---9----//--------9---------|
-----------------------------------|
-----------------------------------|
Comments