Interpol - Obstacle 2 Chords & Tabs

 

Obstacle 2 Chords & Tabs

Interpol Chords & Tabs

Version: 1 Type: Tab 0 ratings
1 star 2 stars 3 stars 4 stars 5 stars
comments

Obstacle 2 Tab

obstacle 2: 

guit 1 

main riff 
----------------------------------------------------- 
----------------------------------------------------- 
---4-4-4-4-4-4-4-4-4-4-4-4-5-4-5-4------------------- 
---5-5-5-5-5-5-5-5-0-0-0-0-0-0-0-0------------------- 
---7-7-7-7-0-0-0-0-5-5-5-5-5-5-5-5------------------- 
----------------------------------------------------- 

"you can fix me up girl" 
-13--//------12--//---------------------------------- 
-15--//------13--//---------------------------------- 
----------------------------------------------------- 
----------------------------------------------------- 
----------------------------------------------------- 
----------------------------------------------------- 

main riff 

"in my mind" 
----------------------------------------------------- 
------------8---//----------------------------------- 
--9---//----8---//----------------------------------- 
------------10--//----------------------------------- 
--7---//----10--//----------------------------------- 
----------------------------------------------------- 

main riff 
"in my mind" 
-----------------10--//--10--//---------------------- 
-----------------10--//--12--//---------------------- 
--10--//--10--//---10--//--10--//---------------------- 
---------9--//---12--//--10--//---------------------- 
--8--//--8--//--------------------------------------- 
----------------------------------------------------- 

---5--//--5--//--5--//--5--//------------------------ 
---6--//--6--//--6--//--6--//--------ad  lib--------- 
---5--//--4--//--7--//--5--//------------------------ 
----------------------------------------------------- 
----------------------------------------------------- 
----------------------------------------------------- 

guit 2 

before "I feel like love" 
----------------------------------------------------- 
----------------------------------------------------- 
-12-12-10-10-9---9---17-16-17-16-19---199-19--19-19-- 
----------------------------------------------------- 
-10-10-8--8--7---7---15-14-15-14-17---177-17--17-17-- 
----------------------------------------------------- 

----12-------12-------------------------------------- 
----12-------12--------15---------------------------- 
----12-------12-----------15------------------------- 
----------------------------------------------------- 
----------------------------------------------------- 
----------------------------------------------------- 
[ Tab from: http://www.guitartabs.cc/tabs/i/interpol/obstacle_2_tab.html ]
"you can fix me up girl" 
----------------------------------------------------------------------------- 
--7-7-7-9-9-9-7-7-7-9-9-9-7-9-7---8-8-8--10-10-10-8-8-8-10-10-10-8-10-8------ 
--9-9-9-9-9-9-9-9-9-9-9-9-9-9-9---9-9-9--9--9--9--9-9-9-9--9--9--9-9--9------ 
----------------------------------------------------------------------------- 
----------------------------------------------------------------------------- 
----------------------------------------------------------------------------- 

"I'll stand by all this drinking" 
----------------------------------------------------- 
----------------------------------------------------- 
--16-//--14-//-16-//-17-//-16-//-14-//-112-//-11-//-- 
----------------------------------------------------- 
--14-//--12-//-14-//-15-//-14-//-12-//-110-//-9--//-- 
----------------------------------------------------- 

"in my mind" 
----------------------------------------------------- 
------------8---//----------------------------------- 
--9---//----8---//----------------------------------- 
------------10--//----------------------------------- 
--7---//----10--//----------------------------------- 
----------------------------------------------------- 

------------------------------12--------------------- 
-----------------12-----12-13-----13-12-------------- 
--16------16-----12---------------------------------- 
----------------------------------------------------- 
--14------14----------------------------------------- 
----------------------------------------------------- 

"you can fix me up girl" 
"I'll stand by all this drinking" 
"in my mind" 
-----------------10--//--10--//---------------------- 
-----------------10--//--12--//---------------------- 
--10--//-10-//---10--//--10--//----------------------
---------9--//---12--//--10--//---------------------- 
--8--//--8--//--------------------------------------- 
----------------------------------------------------- 

---5--//--5--//--5--//--5--//------------------------ 
---6--//--6--//--6--//--6--//------------------------ 
---5--//--4--//--7--//--5--//------------------------ 
----------------------------------------------------- 
----------------------------------------------------- 
----------------------------------------------------- 

-------------------------------------------------------------------- 
------6-------6-------6-------6-------6--------6-------6-------6---- 
--5-5---5-5-5---5-4-4---4-4-4---4-7-7----7-7-7---7-5-5---5-5-5---5-- 
-------------------------------------------------------------------- 
-------------------------------------------------------------------- 
--------------------------------------------------------------------
Comments