Interpol - Obstacle 2 Chords & Tabs

 

Obstacle 2 Chords & Tabs

Interpol Chords & Tabs

Version: 1 Type: Bass Tab 0 ratings
1 star 2 stars 3 stars 4 stars 5 stars
comments

Obstacle 2 Bass Tab

   
Interpol
Obstacle 2

Intro
G|--------------------------------|--------------------------------|
D|--------------------------------|--------------------------------|
A|--------------------------------|--------------------------------|
D|--------------------------------|-------------------------0---1--|

Verse A
G|--------------------------------|--------------------------------||
D|--------------------------------|--------------------------------||
A|--------------------------------|--------------------------------||
D|-5*--2---2---2--7---7---7---0---|-----0---0-----------5---5------|| 7x 
* = First time play 2

G|--------------------------------|--------------------------------|
D|--------------------------------|--------------------------------|
A|--------------------------------|-----5-5-5---5-5-6---6-6-6------|
D|-5---2---2------7---7---7---0---|-----------------------------0--|

Bridge
G|--------------------------------|--------------------------------|
D|---------------------7---7------|-------------------------5------|
A|-----------------------------5--|-----5---5-5---5-5--------------|
D|-0---2---2------7---------------|---------------------5----------| 3x

G|--------------------------------|--------------------------------|
D|--------------------------------|--------------------------------|
A|--------------------------------|--------------------------------|
D|-2---2---2---2--7---7---7---0---|-----5---5---0---0---5---5---0--|

Verse B
G|--------------------------------|--------------------------------|
D|--------------------------------|--------------------------------|
A|--------------------------------|--------------------------------|
D|-2---2---2------7---7---7---0---|-----0---0-0---0-0---5---5------|

G|--------------------------------|--------------------------------|
D|--------------------------------|--------------------------------|
A|-----------------------------5-5|-5---5-5-5---5-5-5---5-5-5------|
D|-5---2---2------7---7---7-------|-----------------------------0--|

G|--------------------------------|--------------------------------|
D|--------------------------------|--------------------------------|
A|--------------------------------|--------------------------------|
D|-0---2---2------7---7---7---0---|-----0---0-0---0-0---5---5------|

G|--------------------------------|--------------------------------|
D|--------------------------------|--------------------------------|
A|-----------------------------5--|-----5---5-5---5-6---6-6--------|
D|-5---2---2---2--7---7---7-------|-----------------------------0--|
[ Tab from: http://www.guitartabs.cc/tabs/i/interpol/obstacle_2_btab.html ]
Chorus A
G|--------------------------------|--------------------------------|
D|--------------------------------|--------------------------------|
A|-7---7---7---7---7---7---7---2-2|-3---3---3---3---5---5---6------|
D|--------------------------------|--------------------------------|

G|--------------------------------|--------------------------------|
D|--------------------------------|--------------------------------|
A|-7---7---7---7---7---7---7---2-2|-3---3---3---3---3---3----------|
D|--------------------------------|-------------------------0---1--|

Verse C
G|--------------------------------|--------------------------------||
D|--------------------------------|--------------------------------||
A|--------------------------------|--------------------------------||
D|-5*--2---2---2--7---7---7---0---|-----0---0-0---0-0---5---5------|| 3x 
* = First time play 2

G|--------------------------------|--------------------------------|
D|--------------------------------|--------------------------------|
A|--------------------------------|-----5---5---5-5-6---6-6-6---6-6|
D|-5---2---2------7---7---7---0---|--------------------------------|

Chorus B
G|--------------------------------|--------------------------------|
D|--------------------------------|--------------------------------|
A|-7---7---7---7---7---7---7---2-2|-3---3---3---3---5---5---6------|
D|--------------------------------|--------------------------------|

G|--------------------------------|--------------------------------|
D|--------------------------------|--------------------------------|
A|-7---7---7---7---7---7---7---2-2|-3---3---3---3---5---5---7---7--|
D|--------------------------------|--------------------------------|

G|--------------------------------|--------------------------------|
D|--------------------------------|--------------------------------|
A|-8---8---8---8---8---8---8---8--|-8---8---8---8---8---8---8---8--|
D|--------------------------------|--------------------------------|

G|--------------------------------|--------------------------------|
D|--------------------------------|--------------------------------|
A|--------------------------------|-----------------0-0-0----------|
D|-2---3---3---3---3---3---3---3--|-3---3---3---3-----------2---3--|

Outro A
G|--------------------------------|--------------------------------||
D|--------------------------------|--------------------------------||
A|--------------------------------|--------------------------------||
D|-2---3---3---3-3---3-3---3---3--|-3---3---3---3-5---5-5---7---7--|| 8x

Outro B
G|--------------------------------|--------------------------------||
D|---------3---------------3------|---------3----------------------||
A|--------------------------------|--------------------------------||
D|-2---3-------2-3---3-3-------2-3|---3-3-------3-5---5-5---7---7--|| 4x



[00:00] (5 bars rest)
[00:21] Intro
[00:25] Verse A
[00:58] Bridge
[01:15] Verse B
[01:31] Chorus A

[01:39] Verse C
[01:56] Bridge
[02:13] Verse B
[02:29] Chorus B
[02:46] Outro A
[03:20] Outro B
Comments