Interpol - Obstacle 1 Chords & Tabs

 

Obstacle 1 Chords & Tabs

Interpol Chords & Tabs

Version: 2 Type: Tab 0 ratings
1 star 2 stars 3 stars 4 stars 5 stars
comments

Obstacle 1 Tab

intro

1---------------------------------------------------------
2---------------------------------------------------------
3---------------------------------------------------------
4-10--10--10--10--10--7--7--7--7--7--7--7--7--10--10--10--
5-8---8---8---8---8---8--8--8--0--0--0--0--0--0---0---0---
6---------------------------------------------------------  1X1

  guitar 1

1-----------------------------------------------------------------
2-----------------------------------------------------------------
3-----------------------------------------------------------------
4-10--10--10--10--10--10--10--10--10--10--10--10--10--10--10--10--
5-8---8---8---8---8---8---8---8---0---0---0---0---0---0---0---0---
6-----------------------------------------------------------------
|
| guitar 2
|
1-8---8-----------8---8-----------8---8-----------8---8---
2-10--10----------10--10----------10--10----------10--10--
3---------------------------------------------------------
4---------------------------------------------------------
5---------------------------------------------------------
6---------------------------------------------------------

  guitar 1

1----------------------------------------------------
2----------------------------------------------------
3----------------------------------------------------
4-9--9--9--9--9--9--9--9--9--9--9--9--9--10--10--10--
5-8--8--8--8--8--8--8--8--0--0--0--0--0--0---0---0---
6----------------------------------------------------
|
| guitar 2
|
1-8---8-----------8---8-----------8---8-----------8---8---
2-10--10----------10--10----------10--10----------10--10--
3---------------------------------------------------------
4---------------------------------------------------------
5---------------------------------------------------------
6---------------------------------------------------------

  guitar 1

1----------------------------------------------------
2----------------------------------------------------
3----------------------------------------------------
4-7--7--7--7--7--7--7--7--7--7--7--7--7--10--10--10--
5-8--8--8--8--8--8--8--8--0--0--0--0--0--0---0---0---
6----------------------------------------------------
|
| guitar 2
|
1-8---8-----------8---8-----------8---8-----------8---8---
2-10--10----------10--10----------10--10----------10--10--
3---------------------------------------------------------
4---------------------------------------------------------
5---------------------------------------------------------
6---------------------------------------------------------  2X1

  verse

  guitar 1

1-----------------------------------------------------------------
2-----------------------------------------------------------------
3-----------------------------------------------------------------
4-10--10--10--10--10--10--10--10--10--10--10--10--10--10--10--10--
5-8---8---8---8---8---8---8---8---0---0---0---0---0---0---0---0---
6-----------------------------------------------------------------
|
| guitar 2
|
1-8---8-----------8---8-----------8---8-----------8---8---
2-10--10----------10--10----------10--10----------10--10--
3---------------------------------------------------------
4---------------------------------------------------------
5---------------------------------------------------------
6---------------------------------------------------------  2X1

  guitar 1

1----------------------------------------------------
2----------------------------------------------------
3----------------------------------------------------
4-7--7--7--7--7--7--7--7--7--7--7--7--7--10--10--10--
5-8--8--8--8--8--8--8--8--0--0--0--0--0--0---0---0---
6----------------------------------------------------
|
| guitar 2
|
1-12--12----------12--12----------12--12----------12--12--
2-13--13----------13--13----------13--13----------13--13--
3---------------------------------------------------------
4---------------------------------------------------------
5---------------------------------------------------------
6---------------------------------------------------------  2X1

  guitar 1

1-----------------------------------------------------------------
2-----------------------------------------------------------------
3-----------------------------------------------------------------
4-10--10--10--10--10--10--10--10--10--10--10--10--10--10--10--10--
5-8---8---8---8---8---8---8---8---0---0---0---0---0---0---0---0---
6-----------------------------------------------------------------
|
| guitar 2
|
1-8---8-----------8---8-----------8---8-----------8---8---
2-10--10----------10--10----------10--10----------10--10--
3---------------------------------------------------------
4---------------------------------------------------------
5---------------------------------------------------------
6---------------------------------------------------------

  guitar 1

1----------------------------------------------------
2----------------------------------------------------
3----------------------------------------------------
4-9--9--9--9--9--9--9--9--9--9--9--9--9--10--10--10--
5-8--8--8--8--8--8--8--8--0--0--0--0--0--0---0---0---
6----------------------------------------------------
|
| guitar 2
|
1-8---8-----------8---8-----------8---8-----------8---8---
2-10--10----------10--10----------10--10----------10--10--
3---------------------------------------------------------
4---------------------------------------------------------
5---------------------------------------------------------
6---------------------------------------------------------

  guitar 1

1----------------------------------------------------
2----------------------------------------------------
3----------------------------------------------------
4-7--7--7--7--7--7--7--7--7--7--7--7--7--10--10--10--
5-8--8--8--8--8--8--8--8--0--0--0--0--0--0---0---0---
6----------------------------------------------------
|
| guitar 2
|
1-12--12----------12--12----------12--12----------12--12--
2-13--13----------13--13----------13--13----------13--13--
3---------------------------------------------------------
4---------------------------------------------------------
5---------------------------------------------------------
6---------------------------------------------------------  2X1

  guitar 1

1----------
2----------
3----------
4-7--7-----
5-8--8--%--
6----------
|
| guitar 2
|
1-12--12----------12--12----------12--12----------12--12--
2-13--13----------13--13----------13--13----------13--13--
3---------------------------------------------------------
4---------------------------------------------------------
5---------------------------------------------------------
6---------------------------------------------------------

  interlude

  guitar 1

1-12--12----------12--12----------12--12----------12--12--
2-13--13----------13--13----------13--13----------13--13--
3---------------------------------------------------------
4---------------------------------------------------------
5---------------------------------------------------------
6---------------------------------------------------------
|
| guitar 2
|
1-8---8-----------8---8-----------8---8-----------8---8---8---8---
2-10--10----------10--10----------10--10----------10--10--10--10--
3-----------------------------------------------------------------
4-----------------------------------------------------------------
5-----------------------------------------------------------------
6-----------------------------------------------------------------

  guitar 1

1-12--12----------12--12----------12--12----------12--12--
2-13--13----------13--13----------13--13----------13--13--
3---------------------------------------------------------
4---------------------------------------------------------
5---------------------------------------------------------
6---------------------------------------------------------
|
| guitar 2
|
1---------8---8-----------8---8-----------8---8-----------
2---------10--10----------10--10----------10--10----------
3---------------------------------------------------------
4---------------------------------------------------------
5---------------------------------------------------------
6---------------------------------------------------------

  chorus

1-------------------------------------------------------------
2-------------------------------------------------------------
3-------------------------------------------------------------
4-10--10--10--10--10--10--10--10--10--10--10--10--9--9--9--9--
5-8---8---8---8---8---8---8---8---8---8---8---8---7--7--7--7--
6-------------------------------------------------------------
[ Tab from: http://www.guitartabs.cc/tabs/i/interpol/obstacle_1_tab_ver_2.html ]
1-------------------------------------------------
2-------------------------------------------------
3-------------------------------------------------
4-7--7--7--7--7--7--7--7--9--9--9--9--9--9--9--9--
5-0--0--0--0--0--0--0--0--7--7--7--7--7--7--7--7--
6-------------------------------------------------

1-------------------------------------------
2-------------------------------------------
3-9---9------9---9------9---9------9--9-----
4-10--10-----10--10-----10--10-----9--9-----
5-8---8---%--8---8---%--8---8---%--7--7--%--
6-------------------------------------------

1-------------------------------------------------
2-------------------------------------------------
3-9--9--9--9--9--9--9--9--9--9--9--9--9--9--9--9--
4-7--7--7--7--7--7--7--7--9--9--9--9--9--9--9--9--
5-0--0--0--0--0--0--0--0--7--7--7--7--7--7--7--7--
6-------------------------------------------------

  2nd verse

  guitar 1

1---------------------------------------------------------
2---------------------------------------------------------
3---------------------------------------------------------
4-10--10--10--10--10--7--7--7--7--7--7--7--7--10--10--10--
5-8---8---8---8---8---8--8--8--0--0--0--0--0--0---0---0---
6---------------------------------------------------------
|
| guitar 2
|
1---------------------------------------------------------
2---------------------------------------------------------
3------------------------------7--7--7--7--7--7--7-7-7-7--
4------------------------------x--x--x--x--x--x--x-x-x-x--
5------------------------------5--5--5--5--5--5--5-5-5-5--
6---------------------------------------------------------

  guitar 1

1---------------------------------------------------------
2---------------------------------------------------------
3---------------------------------------------------------
4-10--10--10--10--10--7--7--7--7--7--7--7--7--10--10--10--
5-8---8---8---8---8---8--8--8--0--0--0--0--0--0---0---0---
6---------------------------------------------------------
|
| guitar 2
|
1---------------------------------------------------------------------
2---------------------------------------------------------------------
3-10--10--10--10--10--10--10-10-10-10-14--14--14--14--14--14--14--14--
4-x---x---x---x---x---x---x--x--x--x--x---x---x---x---x---x---x---x---
5-8---8---8---8---8---8---8--8--8--8--12--12--12--12--12--12--12--12--
6---------------------------------------------------------------------

  guitar 1

1-----------------------------------------------------------------
2-----------------------------------------------------------------
3-----------------------------------------------------------------
4-10--10--10--10--10--10--10--10--10--10--10--10--10--10--10--10--
5-8---8---8---8---8---8---8---8---0---0---0---0---0---0---0---0---
6-----------------------------------------------------------------
|
| guitar 2
|
1-8---8-----------8---8-----------8---8-----------8---8---
2-10--10----------10--10----------10--10----------10--10--
3---------------------------------------------------------
4---------------------------------------------------------
5---------------------------------------------------------
6---------------------------------------------------------

  guitar 1

1------------------------------------------------------------
2------------------------------------------------------------
3------------------------------------------------------------
4-10--10--10--10--10--10--10--10--7--7--7--7--7--10--10--10--
5-8---8---8---8---8---8---8---8---0--0--0--0--0--0---0---0---
6------------------------------------------------------------
|
| guitar 2
|
1-8---8-----------8---8-----------8---8-----------8---8---
2-10--10----------10--10----------10--10----------10--10--
3---------------------------------------------------------
4---------------------------------------------------------
5---------------------------------------------------------
6---------------------------------------------------------

  guitar 1

1----------------------------------------------------
2----------------------------------------------------
3----------------------------------------------------
4-7--7--7--7--7--7--7--7--7--7--7--7--7--10--10--10--
5-8--8--8--8--8--8--8--8--0--0--0--0--0--0---0---0---
6----------------------------------------------------
|
| guitar 2
|
1-12--12----------12--12----------12--12----------12--12--
2-13--13----------13--13----------13--13----------13--13--
3---------------------------------------------------------
4---------------------------------------------------------
5---------------------------------------------------------
6---------------------------------------------------------  2X3

  guitar 1

1----------
2----------
3----------
4-7--7-----
5-8--8--%--
6----------
|
| guitar 2
|
1-12--12----------12--12----------12--12----------12--12--
2-13--13----------13--13----------13--13----------13--13--
3---------------------------------------------------------
4---------------------------------------------------------
5---------------------------------------------------------
6---------------------------------------------------------

  2nd interlude - same as first

  2nd chorus - same as first, play twice

  outro

1----------0--------------0--------------------
2----1--------------1--------------1-----1-----
3-2-----2--------2-----2--------2-----2-----2--
4----------------------------------------------
5----------------------------------------------
6----------------------------------------------  1X9

  guitar 1

1----------0--------------0--------------------
2----1--------------1--------------1-----1-----
3-2-----2--------2-----2--------2-----2-----2--
4----------------------------------------------
5----------------------------------------------
6----------------------------------------------
|
| guitar 2
|
1-------------------------------------------------
2-------------------------------------------------
3-------------------5--5--7--7--7--7--7--7--7--7--
4-5--5--5--7--7--7--------------------------------
5-------------------------------------------------
6-------------------------------------------------  2X11

  guitar 1

1----------0--------------0-----------------------
2----1--------------1--------------1-----1--------
3-2-----2--------2-----2--------2-----2-----2-----
4----------------------------------------------%--
5-------------------------------------------------
6-------------------------------------------------
|
| guitar 2
|
1----------------------------------------------------
2----------------------------------------------------
3-------------------5--5--7--7--7--7--7--7--7--7-----
4-5--5--5--7--7--7-----------------------------------
5----------------------------------------------------
6-------------------------------------------------%--

#-----------------------------------------------------------------------------#

I made up this tab before I found an Interpol tab site at
http://www.geocities.com/interpoltabs/

here are some riffs from the Obstacle 1 tab from that site,
looks like the author is Serge Hardy

"but it's different now" 
---------------------------------------------------- 
---------------------------------------------------- 
--10-10-10-10-10-10-10-10-10-10-10-10-9---9--9--9--- 
--10-10-10-10-10-10-10-10-10-10-10-10-100-10-10-10-- 
--8--8--8--8--8--8--8--8--8--8--8--8--7---7--7--7--- 
---------------------------------------------------- 


---------------------------------------------------- 
---------------------------------------------------- 
--9--9--9--9--9--9--9--9--9--9--9--9--9---9--9--9--- 
--10-10-10-10-10-10-10-10-10-10-10-10-100-10-10-10-- 
--0--0--0--0--0--0--0--0--10-10-10-10-100-10-10-10-- 
--------------------------8--8--8--8--8---8--8--8--- 


---------------------------------------------------- 
---------------------------------------------------- 
--9--9----------9--9-------------------------------- 
--10-10---*3----10-10------------------------------- 
--8--8----------7--7-------------------------------- 
---------------------------------------------------- 

---------------------------------------------------- 
---------------------------------------------------- 
--9--9--9--9--9--9--9--9--9--9--9--9--9---9--9--9--- 
--10-10-10-10-10-10-10-10-10-10-10-10-100-10-10-10-- 
--0--0--0--0--0--0--0--0--10-10-10-10-100-10-10-10-- 
--------------------------8--8--8--8--8---8--8--8--- 

outro: 
--------12---------12-------------------------------- 
----13---------13--------13--13---------------------- 
--14--14-----14--14----14--14--14-------------------- 
----------------------------------------------------- 
----------------------------------------------------- 
-----------------------------------------------------
Comments