Interpol - Obstacle 1 Chords & Tabs

 

Obstacle 1 Chords & Tabs

Interpol Chords & Tabs

Version: 2 Type: Bass Tab 0 ratings
1 star 2 stars 3 stars 4 stars 5 stars
comments

Obstacle 1 Bass Tab

Obstacel 1
Interpol
"Turn On The Bright Lights"(Matador)

Ok, i felt bad cause the other dude totally hacked this song into peices....
so i decided to be a nice guy, and give you the ENTIRE song, the right way!
This is all in standard(EADG) tuning.   /=slide down, \=slide up, *=hold note

By: Joanie   www.kingfriday.tk 

INTRO:
G-17-17-17-17-17-17-19-19-19-19-19-19-19-19-17-17-17-17-17-- (3x)
D-----------------------------------------------------------
A-----------------------------------------------------------
E-----------------------------------------------------------

G-17-17-19-17--19-17-19-17-19-17-19-17--   (1x)
D---------------------------------------
A---------------------------------------
E---------------------------------------

VERSE:
G---------------------
D-----8---------------
A-8-8---8-------------
E----------555555888--

(on every 3rd and 6th time)
G--------10-10------------
D-----8-------------------
A-8-8---8-----------------
E--------------555555888--

Chorus:(on first chorus, 1x, on second 2x)
G---------------------------------------------------------------------------
D---------------------------------------------------------------------------
A-8888888888888\777-----------------88-88-88-77-----------------------------
E-----------------55555555/88888888--------------55555555/8888/20-20-20-20--
[ Tab from: http://www.guitartabs.cc/tabs/i/interpol/obstacle_1_btab_ver_2.html ]
Heavy Part Before 2nd Verse:
G-------------------------------
D-------------------------------
A-----------3-----3-------------
E-555555-1-1--1--1--1--555/888--

Interlude:
G-------------------------
D-------------------------
A-------------------------
E-8*--------5*--------8*--

(interlude cont.)
G-----------------------------------------------------------------------
D-----------------------------------------------------------------------
A-5/12/13\12\10\8\5*--------------3*--------------5*--------------3*----
E--------------------------1-1-1-1---------1-1-1-1---------1-1-1-1------

(interlude cont.)
G------------------
D------------------
A-1-1-1-2-2-2-3-3--
E------------------

She Packs It Away part:
G----------------------------------------------------------------------
D----------------------------------------------------------------------
A-3333333333333333-0000000000000000-3333333333333333-000-111-00--------
E--------------------------------------------------------------33333333

Ending:
G--------------------------------------------------   (1x)    
D------10-10-10---------10-10-10-------------------
A-88888--------8--88888---------8-5555555555555/777
E--------------------------------------------------

(ending cont.)
G-------------------------------------------------------(1x)(on last 3 stop 
D------10-10-10---------10-10-10------------------------string from ringing
A-88888--------8--88888---------8-55555555\111\222\33-3-with your hand)      
E-------------------------------------------------------
Comments