Interpol - Obstacle 1 Chords & Tabs

 

Obstacle 1 Chords & Tabs

Interpol Chords & Tabs

Version: 1 Type: Bass Tab 0 ratings
1 star 2 stars 3 stars 4 stars 5 stars
comments

Obstacle 1 Bass Tab

   
                                  www.interpol.int/
-------------------------------------------------------------------------------
			     obstacle 1 - Interpol
-------------------------------------------------------------------------------

Tabbed By : phfated		
e-mail: mer

Tuning: standard EADG
not the whole song, but more than the intro play with pick

[ Tab from: http://www.guitartabs.cc/tabs/i/interpol/obstacle_1_btab.html ]
its pretty close, maybe more repititions
G|17-17-17-19-19-19-17-17---------------------------------------------|
D|--------------------------------------------------------------------|
A|--------------------------------------------------------------------| 
E|--------------------------------------------------------------------|
(x4)
G|17-19-17-17-19-17-17-19-17-19-17-19-17------------------------------|
D|--------------------------------------------------------------------|
A|--------------------------------------------------------------------|
E|--------------------------------------------------------------------|

G|--------------------------10-10-------------------------------------|
D|--------10-------------10-------------------------------------------|
A|----8-8------------8-8----------------------------------------------|
E|8-8--------55558-8--------------5555-------------------------------|



| /  slide up
| \  slide down
| h  hammer-on
| p  pull-off
| ~  vibrato
| +  harmonic
| x  Mute note
Comments