Interpol - Nyc Chords & Tabs

 

Nyc Chords & Tabs

Interpol Chords & Tabs

Version: 4 Type: Tab 0 ratings
1 star 2 stars 3 stars 4 stars 5 stars
comments

Nyc Tab

Interpol
NYC 

Guitar 1

Main Riff:
e|-----------------------------|
B|--1-//--------1--1--1--1--1--|
G|--2-//--(x11)-0--0--0--0--2--| 
D|--3-//--------3--2--2--2--3--|
A|--3-//--------3--3--3--3--3--|
E|-----------------------------|

Ending: 
e|-----------------------------------|
B|--1-1-1-1-1-1-1-1-1-1-1-1-1-1-1-1--|
G|--2-2-2-2-3-3-3-2-2-2-2-2-2-2-2-2--| 
D|--3-3-3-3-3-3-3-3-3-3-3-3----------|
A|--------------------------3-3-3-3--|
E|-----------------------------------|

Guitar 2 

Main Riff:
e|-----------------------------|
B|--1-//--------1--1--1--1--1--|
G|--2-//--(x11)-0--0--0--0--2--| 
D|--3-//--------3--2--2--2--3--|
A|--3-//--------3--3--3--3--3--|
E|-----------------------------|
[ Tab from: http://www.guitartabs.cc/tabs/i/interpol/nyc_tab_ver_4.html ]
Chorus: 
e|--1-//--------1--3--3--3--3--|
B|--1-//--------1--1--1--1--1--| 
G|--2-//--(x11)-0--0--0--0--0--|
D|--3-//--------3--2--2--2--2--|
A|--3-//--------3--3--3--3--3--| 
E|----//-----------------------|

Tremolo picking (when drums stop):
e|---------------------------------------------------------------------| 
B|---------------------------------------------------------------------| 
G|--5-//--9-//--2-//--3-//--2-//--3-///--5-//--9-//--2-//--3-//--2-//--| 
D|---------------------------------------------------------------------| 
A|---------------------------------------------------------------------|
E|---------------------------------------------------------------------| 

Last few times:
e|-----------------------------------------|
B|--18-//--17-//--18-//--17-//--15-//--13--|
G|-----------------------------------------| 
D|-----------------------------------------| 
A|-----------------------------------------| 
E|-----------------------------------------| 

***really pay attention to little changes in the chords for this tab. i've
overlooked it many times and you shouldn't do the same.***
Comments