Interpol - Nyc Chords & Tabs

 

Nyc Chords & Tabs

Interpol Chords & Tabs

Version: 1 Type: Tab 0 ratings
1 star 2 stars 3 stars 4 stars 5 stars
comments

Nyc Tab

interpol-NYC

what a tune! 

opening chords, played quite a few times
----------------------------------------------------- 
--1-1-1-1-1-1-1-1-1-1-1-1-1-1-1-1-------------------- 
--2-2-2-2-2-2-2-2-2-2-2-0-0-0-0-2-------------------- 
--3-3-3-3-3-3-3-3-3-3-3-3-2-2-2-3-------------------- 
--3-3-3-3-3-3-3-3-3-3-3-3-3-3-3-3-------------------- 
----------------------------------------------------- 
then
----------------------------------------------------- 
--1-1-1-1-1-1-1-1-1-1-1-1-1-1-1-1-------------------- 
--2-2-2-2-3-3-3-2-2-2-2-2-2-2-2-2-------------------- 
--3-3-3-3-3-3-3-3-3-3-3-3-x-x-x-x-------------------- 
--------------------------3-3-3-3-------------------- 
----------------------------------------------------- 

[ Tab from: http://www.guitartabs.cc/tabs/i/interpol/nyc_tab.html ]
the solo thingy
--------------------------------------------------------------------- 
---------------------------------------------------------------------
--5-/----9-/---2-/--3-/--2-/---3-/--5-/-----9-/---2-/---3-/--2-/-----
---------------------------------------------------------------------
---------------------------------------------------------------------
--------------------------------------------------------------------- 

end bit
----------------------------------------------------- 
--18-/---17-/---18-/---17-/---15-/----13-------------
----------------------------------------------------- 
----------------------------------------------------- 
----------------------------------------------------- 
----------------------------------------------------- 

this is the basis of the song, you'l have to  work out the timing for yourself.
enjoy
Comments