Interpol - Nyc Chords & Tabs

 

Nyc Chords & Tabs

Interpol Chords & Tabs

Version: 1 Type: Bass Tab 0 ratings
1 star 2 stars 3 stars 4 stars 5 stars
comments

Nyc Bass Tab

Interpol
NYC
Dropped D Tuning

Part 1: Begins At the Chorus
G|------------------------------------------------|
D|-----------------------10-10-----10-10-10-------|
A|--(3)/8-8-8-8-8---8-8------------------------7--|
D|------------------------------------------------|

G|-----------------------------| 
D|-----------------------------|
A|--7-8-8-8-8---8-8-8-3-3---3--|
D|-----------------------------|

Part 2: When Drums Start Up
G|-----------------------------------|
D|-----------------------------------|
A|-----------------------------------|
D|--3-3-3-3-3---3-3-3-3-3---3-3-3-3--|
[ Tab from: http://www.guitartabs.cc/tabs/i/interpol/nyc_btab.html ]
G|--------------------------------------|
D|--------------------------------------|
A|--------------------------------------|
D|--3-3-3-3-3---3-3-10-10-10-10-10---2--|

Part 3: Towards the End
G|-----------------------------------| 
D|-----------------------------------|
A|-----------------------------------|
D|--3-3-3-3-3---3-3-3-3-3---3-3-3-3--|

G|-------------------------------------------|
D|-------------------------------------------|
A|----------------------------------10---10--| 
D|--15-15-15-15---15-15-10-10-10-10----------|


[01:18] Part 1 4x
[02:07] Part 2 6x
[02:50] Part 3
[02:56] Part 2 3x + Part 3
[03:20] Part 2 3x + Part 3
Comments