Interpol - Not Even Jail Chords & Tabs

 

Not Even Jail Chords & Tabs

Interpol Chords & Tabs

Version: 1 Type: Tab 0 ratings
1 star 2 stars 3 stars 4 stars 5 stars
comments

Not Even Jail Tab

   
-------------------------------------------------------------------------------
			     NOT EVEN JAIL - Interpol
-------------------------------------------------------------------------------
Tabbed by: Carswellium	
Email: carswellium@hotmail.com

Tuning: Standard

Intro: Weird effects for half a minute

Verse:

Guit 1:
                                  \/ End here 6th time
e|---------------------------------|---------------------------------|
B|---------------------------------|---------------------------------|
G|---------------------------------|---------------------------------|
D|-----------------------------5-5-|-2-2-2-2-2-2-2-2-2-2-2-2-2-0-0---| x6
A|-3-3-3-3-3-3-3-3-3-3-3-3-5-5-----|-------------------------------3-|
E|---------------------------------|---------------------------------|

Guit 2:
e|---------------------------------------------------------------------------|
B|---------------------------------------------------------------------------|
G|-5-5-5-5-5-5-5-5-7-7-7-7-7-7-7-7-9-9-9-9-9-9-9-9-12-12-12-12-12-12-12-12---|
D|---------------------------------------------------------------------------|
A|---------------------------------------------------------------------------|
E|---------------------------------------------------------------------------|
  "I say it now"

Bridge:

Guit 1: (Guit 2 silent)
e|---------------------------------------------------------------------------|
B|---------------------------------------------------------------------------|
G|---------------------------------------------------------------------------|
D|-10--10--10--10--10--10--10--10--9--9--9--9--9--9--9--9--7-7-7-7-7-7-7-7---|
A|---12--12--12--12--12--12--12--12-10-10-10-10-10-10-10-10-9-9-9-9-9-9-9-9--| 
E|---------------------------------------------------------------------------|
"Say it now"
  
  Guit 1
e|---------------------------------------------------------------------------|
B|---------------------------------------------------------------------------|
G|---------------------------------------------------------------------------|
D|-10--10--10--10--10--10--10--10--9--9--9--9--9--9--9--9--7-7-7-7-7-7-7-7---| (played
A|---12--12--12--12--12--12--12--12-10-10-10-10-10-10-10-10-9-9-9-9-9-9-9-9--|  at
E|---------------------------------------------------------------------------| same
 | "Say it now"                                                              |  time)
 | Guit 2                                                                    |
e|-8---8---8---8---8---8---8---8---7--7--7--7--7--7--7--7--5-5-5-5-5-5-7-7---|
B|---10--10--10--10--10--10--10--10-8--8--8--8--8--8--8--8--6-6-6-6-6-6-6----|
G|---------------------------------------------------------------------------|
D|---------------------------------------------------------------------------|
A|---------------------------------------------------------------------------|
E|---------------------------------------------------------------------------|

e|-12--12--10--10--10--10--10--10--8--8--8--8--10--10--10--10----------------|
B|---12--12--12--12--12--12--10--10-10-10-10-10--10--10--10------------------|
G|---------------------------------------------------------------------------|
D|---------------------------------------------------------------------------|
A|---------------------------------------------------------------------------|
E|---------------------------------------------------------------------------|
 |
e|-12--12--10--10--10--10--10--10--8--8--8--8--10--10--10--10----------------|
B|---12--12--12--12--12--12--10--10-10-10-10-10--10--10--10------------------|
G|---------------------------------------------------------------------------|
D|---------------------------------------------------------------------------|
A|---------------------------------------------------------------------------|
E|---------------------------------------------------------------------------|

Not sure what they do for the chorus, but it ends with...

e|-12-----12-----12--12-----12------12---------------------------------------|
B|---13-13--13-13--13--13-13--13-13---13-------------------------------------|
G|---------------------------------------------------------------------------|
D|---------------------------------------------------------------------------|
A|---------------------------------------------------------------------------|
E|---------------------------------------------------------------------------|

Bridge/2nd Verse:
Guit 1:
e|---------------------------------12--12--12--12----------------------------------------------------|
B|-13--13--13--13--12--12--12--12----13--13--13--13-12--12--12--12--13--13--13--13--12--12--12--12---|
G|---12--12--12--12--12--12--12--12-------------------12--12--12--12--12--12--12--12--12--12--12--12-|
D|---------------------------------------------------------------------------------------------------|x several
A|---------------------------------------------------------------------------------------------------|  times
E|---------------------------------------------------------------------------------------------------|
  "Marshal in the days..."
[ Tab from: http://www.guitartabs.cc/tabs/i/interpol/not_even_jail_tab.html ]
Guit 2:                           \/ Finsih here 4th time 
e|---------------------------------------------------------------------------|
B|-----------------------------8-8-5-5-5-5-5-5-5-5-5-5-5-5-5-----------------|
G|-5-5-5-5-5-5-5-5-5-5-5-5-7-7-------------------------------7-7-5-----------|
D|---------------------------------------------------------------------------|x4
A|---------------------------------------------------------------------------|
E|---------------------------------------------------------------------------|
  "I'm erring on this..."

Guit 1:
e|-12--12--12--12--12--12--12--12--12--12--12--12--12--12--12--12------------|
B|---13--13--13--13--13--13--13--13--13--13--13--13--13--13--13--13----------|
G|---------------------------------------------------------------------------|
D|---------------------------------------------------------------------------|
A|---------------------------------------------------------------------------|
E|---------------------------------------------------------------------------|
 | "I say it now"                                                            |
 | Guit 2:                                                                   |
e|---------------------------------------------------------------------------|
B|---------------------------------------------------------------------------|
G|-5-5-5-5-5-5-5-5-7-7-7-7-7-7-7-7-9-9-9-9-9-9-9-9-12-12-12-12-12-12-12-12---|
D|---------------------------------------------------------------------------|
A|---------------------------------------------------------------------------|
E|---------------------------------------------------------------------------|

Bridge:

Guit 1: (Guit 2 silent)
e|---------------------------------------------------------------------------|
B|---------------------------------------------------------------------------|
G|---------------------------------------------------------------------------|
D|-10--10--10--10--10--10--10--10--9--9--9--9--9--9--9--9--7-7-7-7-7-7-7-7---|
A|---12--12--12--12--12--12--12--12-10-10-10-10-10-10-10-10-9-9-9-9-9-9-9-9--| 
E|---------------------------------------------------------------------------|
"But hold it still..."
  
  Guit 1
e|---------------------------------------------------------------------------|
B|---------------------------------------------------------------------------|
G|---------------------------------------------------------------------------|
D|-10--10--10--10--10--10--10--10--9--9--9--9--9--9--9--9--7-7-7-7-7-7-7-7---| (played
A|---12--12--12--12--12--12--12--12-10-10-10-10-10-10-10-10-9-9-9-9-9-9-9-9--|  at
E|---------------------------------------------------------------------------| same
 | "You're making..."                                                        |  time)
 | Guit 2                                                                    |
e|-8---8---8---8---8---8---8---8---7--7--7--7--7--7--7--7--5-5-5-5-5-5-7-7---|
B|---10--10--10--10--10--10--10--10-8--8--8--8--8--8--8--8--6-6-6-6-6-6-6----|
G|---------------------------------------------------------------------------|
D|---------------------------------------------------------------------------|
A|---------------------------------------------------------------------------|
E|---------------------------------------------------------------------------|

e|-12--12--10--10--10--10--10--10--8--8--8--8--10--10--10--10----------------|
B|---12--12--12--12--12--12--10--10-10-10-10-10--10--10--10------------------|
G|---------------------------------------------------------------------------|
D|---------------------------------------------------------------------------|
A|---------------------------------------------------------------------------|
E|---------------------------------------------------------------------------|
 |
e|-12--12--10--10--10--10--10--10--8--8--8--8--10--10--10--10----------------|
B|---12--12--12--12--12--12--10--10-10-10-10-10--10--10--10------------------|
G|---------------------------------------------------------------------------|
D|---------------------------------------------------------------------------|
A|---------------------------------------------------------------------------|
E|---------------------------------------------------------------------------|

CHORUS

OUTRO:
  Guit 1 plays variation of...
e|---------------------------------12--12--12--12----------------------------------------------------|
B|-13--13--13--13--12--12--12--12----13--13--13--13-12--12--12--12--13--13--13--13--12--12--12--12---|
G|---12--12--12--12--12--12--12--12-------------------12--12--12--12--12--12--12--12--12--12--12--12-|
D|---------------------------------------------------------------------------------------------------|x several
A|---------------------------------------------------------------------------------------------------|  times
E|---------------------------------------------------------------------------------------------------|

Guit 2 improvises.

(Fade out.)

| /  slide up
| \  slide down
| h  hammer-on
| p  pull-off
| ~  vibrato
| +  harmonic
| x  Mute note
===============================================================================
Comments