Interpol - Narc Chords & Tabs

 

Narc Chords & Tabs

Interpol Chords & Tabs

Version: 1 Type: Bass Tab

Narc Bass Tab

   
Verse
G |-------*-------------------*---*-|-------------------5---5---4---4-| *) Hit these notes twice
D |-------5---5---5---4---4---4---4-|-------*-*-----------------------|
A |---------------------------------|-5-----5-5-5---5-3---3---2---2---|
D |-5-------5---5---4---4---4-------|---------------------------------|

G |-------*-------------------*---*-|---------------------------------|
D |-------5---5---5---4---4---4---4-|-------*-------------------------|
A |---------------------------------|-5-----5-5-3---3-2-2---0-2-2-2-2-|
D |-5-------5---5---4---4---4-------|---------------------------------|

Bridge A
G |---------------------------------|---------------------------------|
D |---------------------------------|---------------------------------|
A |-5-----5-5-3---3-2-----0-2-2---2-|-5-----5-5-3---3-2-----0-2-2---2-|
D |---------------------------------|---------------------------------|

Bridge B
G |---------------------------------|---------------------------------|
D |---------------------------------|---------------------------------|
A |-5-----5-5-3---3-2-----0-2-2-2-/-|-5-5-5-5-3-3-3-3-2-2-2-2/C-C-C-C-| C=12
D |---------------------------------|---------------------------------|

Chorus
G |---------------------------------|---------------------------------||
D |---------------------------------|---------------------------------|| C=12
A |---------------------------------|---------------------------------||
D |-5-5-5-5-5-5-5-5-7-7-7-7-7-7-7-0-|-2-2-2-2-2-2-2-2-2-2-2-2/C-C-C-C-|| 2x

G |---------------------------------|---------------------------------|
D |-----5-------5-------7-------7---|-----9-------9-------9-----------| x = Mute the note
A |---------------------------------|---------------------------------|
D |-5-5---5x--5---5-7-7---7x--7---7-|---9---9x--9---9x--9---9/C-C-C---| C=12

G |---------------------------------|---------------------------7---7-|
D |-----5-5-----5-5------7-7----7-7-|-----9-9-----9-9-9-9-9---7---7---|
A |---------------------------------|-----------------------5---------|
D |-5-5-----5-5-----7-7-----7-7-----|-9-9-----9-9---------------------|
[ Tab from: http://www.guitartabs.cc/tabs/i/interpol/narc_btab.html ]
End Chorus A + B
G |-----------------------------7---| |-------------------------------*-|
D |---------------------------5-----| |-------------------------------A-| A=10
A |-------------------------------5-| |---------------------------------|
D |-5------------------------------| |-5------------------------------|

Break A
G |---------------------------------|---------------------------------||
D |-------*-A-A---A-------*-7-7-----|-------*-A-A---A-------*-7-7-----|| A=10
A |-7-----7---------7-----5-------5-|-7-----7---------7-----5-------5-||
D |---------------------------------|---------------------------------|| 2x

Break B
G |---------------------------------|---------------------------------|
D |-----------------A-A-A-A-A-A-A-A-|-7-7-7-7-7-7---------------------|
A |-7-7-7-7-7-7-7-7-----------------|-------------5-5-7-7-7-7-7-6-5-4-|
D |---------------------------------|---------------------------------|

G |---------------------------------|---------------------------------|
D |---------------------------------|---------------------------------|
A |-3-3-3-3-3-3-3-3-0-0-0-0-0-0-0-5-|-5-5-5-5-5-5-5-5-7-7-7-7-7-7-7-0-|
D |---------------------------------|---------------------------------|

G |---------------------------------|---------------------------------|
D |---------------------------------|---------------------------------|
A |-2-2-2-2-2-2-2-2-2-2-2-2-2-0-0-2-|-5-5-5-5-5-5-5-5-7-7-7-7/J-J-J-0-| J=19
D |---------------------------------|---------------------------------|

Outro
G |---------------------------------|---------------------------------||
D |---------------------------------|---------------------------------||
A |-2-2-2-2-2-2-2-2-2-2-2-2-2-0-0-2-|-5-5-5-5-5-5-5-5-7-7-7-7-7-7-7---||
D |---------------------------------|-------------------------------7-|| 2x

G |---------------------------------|-----7-7-----7-7-----9-9---------|
D |---------------------------------|-------------------------------7-|
A |-2-2-2-2-2-2-2-2-2-2-2-2-2-0-0-2-|-5-5-----5-5-----7-7-----7-7-----|
D |---------------------------------|---------------------------------|

G |---------------------------------|
D |-9~~-----------------------------|
A |---------------------------------|
D |---------------------------------|