Interpol - Length Of Love Chords & Tabs

 

Length Of Love Chords & Tabs

Interpol Chords & Tabs

Version: 2 Type: Tab 0 ratings
1 star 2 stars 3 stars 4 stars 5 stars
comments

Length Of Love Tab

   
-------------------------------------------------------------------------------
   		       Length of Love - Interpol
-------------------------------------------------------------------------------
Tabbed by: Bert
Email: kline.159@osu.edu

Tuning: eBGDAE

e|---------------------------------------------------------------------------|
B|---------------------------------------------------------------------------|
G|----------------------1--1-------------------------------------------------|
D|----3--3--3--3--3--3-------------------------------------------------------|
A|-----3--3--3--3--3--3--3--3------------------------------------------------|
E|---------------------------------------------------------------------------|

"combat salacious"
e|---------------------------------------------------------------------------|
B|---------------------------------------------------------------------------|
G|----2--2--2--2--2--2--1--1--1--1--1--1-------------------------------------|
D|----3--3--3--3--3--3--3--3--3--3--3--3-------------------------------------|
A|-----3--3--3--3--3--3--3--3--3--3--3--3------------------------------------|
E|---------------------------------------------------------------------------|
[ Tab from: http://www.guitartabs.cc/tabs/i/interpol/length_of_love_tab_ver_2.html ]
each notes is repeated 16 times unless noted
				   *8   *8		    *8   *8
e|---------------------------------------------------------------------------|
B|-10---9---10---9---10---9---13---11---15---10---10---13---11---15----------|
G|---------------------------------------------------------------------------|
D|---------------------------------------------------------------------------|
A|---------------------------------------------------------------------------|
E|---------------------------------------------------------------------------|
		       repeat for rest of song
e|---------------------------------------------------------------------------|
B|-10---10\9/10\9/10---10---9------------------------------------------------|
G|---------------------------------------------------------------------------|
D|---------------------------------------------------------------------------|
A|---------------------------------------------------------------------------|
E|---------------------------------------------------------------------------|


| /  slide up
| \  slide down
| h  hammer-on
| p  pull-off
| ~  vibrato
| +  harmonic
| x  Mute note
===============================================================================
Comments