Interpol - Hands Away Chords & Tabs

 

Hands Away Chords & Tabs

Interpol Chords & Tabs

Version: 4 Type: Tab 0 ratings
1 star 2 stars 3 stars 4 stars 5 stars
comments

Hands Away Tab

Interpol
Hands away 
 
Main Riff (Try Finger-Picking)
|-------|    |-------|              |-------|    |-------|  |-------|
|----1--|    |-------|              |-------|    |----0--|  |----1--|
|-------| x8 |----0--| x4           |-------|    |-------|  |-------|
|-------|    |-------|(x8 1st time) |----3--| x4 |-------|  |-------| x3
|--0----|    |-------|              |--5----|    |--0----|  |--0----|
|-------|    |--0----|              |-------|    |-------|  |-------|
[ Tab from: http://www.guitartabs.cc/tabs/i/interpol/hands_away_tab_ver_4.html ]
"Oh what happened?"
|-------|    |---------------------------------------------------------|
|----1--|    |-----0----0---3---3---3---3---------1---0--------0---1---|
|-------| x4 |---------------------------------2-------------2---------|
|-------|    |-------------3---3---3---3----3----3---3---3-------------|
|--0----|    |--0----0------------------------------------------0---0--|
|-------|    |---------------------------------------------------------| 
 
|------------------------------------------| 
|------------------------------------------| 
|------------------------------------------|
|------------------------------------(17)--|
|------10-//----------8-//----13-//--------| 
|--12---------(11)-10------15--------------| 

When synths start: 
|-----------------------| 
|-----------------------|
|-----------------------|
|--12-//--10-//--17-//--|
|--10-//---8-//--13-//--|
|--12-//--10-//--15-//--|

Ending: 
|------------------------------------------------------------------0~~~--| 
|----------------------3---3---3---3--------1---0------0--1--1--1--1~~~--| 
|-------------------------------------2------------2---------------2~~~--| 
|----------------0--3---3---3---3---3---3-3---3--3-----------------2~~~--| 
|------13-//-----------------------------------------0--0--0--0----0~~~--| 
|--15-------15-----------------------------------------------------------|

Guitar 2
|--(0)---(0)---(0)---(0)---(0)--| 
|---5-----5-----5-----5-----5---|
|-------------------------------| throughout entire song
|-------------------------------|
|-------------------------------|
|-------------------------------|

100% Correct RATE!!!
Comments