Interpol - Hands Away Chords & Tabs

 

Hands Away Chords & Tabs

Interpol Chords & Tabs

Version: 1 Type: Tab 0 ratings
1 star 2 stars 3 stars 4 stars 5 stars
comments

Hands Away Tab

   
Interpol- Hands Away 
Album: Turn on the Bright Lights

Standard Tuning

Intro:
E					                                       
B					
G----5---5---5---5---5---5---5---5---0---0---0---0---0---0---0---0
D----------------------------------------------------------------------
A---------------------------------------------------------------------- 
E--5---5---5---5---5---5---5---5---0---0---0---0---0---0---0---0--

G---------------------4---5---5---5---5---5---5---5
D----3---3---3---3----------------------------------
A--5---5---5---5------------------------------------
E-------------------5---5---5---5---5---5---5---5--


Section 1:
G----5---5---5---5---0---0---0---0
D-----------------------------------
A-----------------------------------
E--5---5---5---5---0---0---0---0--

   Will you put my........


G----------------------4---5---5---5---5---5---5---5
D----3---3---3---3-----------------------------------           
A--5---5---5---5-------------------------------------
E--------------------5---5---5---5---5---5---5---5--

    Will you be my .......

(Play Section 1 Two Times)
[ Tab from: http://www.guitartabs.cc/tabs/i/interpol/hands_away_tab.html ]
Section 2:
B----------------------------------------3---3---3---3-------------------------
G----5---5---5---5---5---5---4---4---------------------2---5---4----2---4---
D-------------------------------------------------------------------------------
A-------------------------------------------------------------------------------
E--5---5---5---5----5---5---5---5---5---5---5---5---5---5---5---5---5------

                                                	oh,         what       happened?
(Play Section 2 Two Times)


G----5---5---5---5---5---5---5---5---0---0---0---0---0---0---0---0
D----------------------------------------------------------------------
A----------------------------------------------------------------------
E--5---5---5---5---5---5---5---5---0---0---0---0---0---0---0---0--

G----------------------5---5---5---5---5---5---5---5
D----3---3---3---3-----------------------------------
A--5---5---5---5-------------------------------------
E--------------------5---5---5---5---5---5---5---5--

G----5---5---5---5---5---5---5---5---0---0---0---0---0---0---0---0
D----------------------------------------------------------------------
A----------------------------------------------------------------------
E--5---5---5---5---5---5---5---5---0---0---0---0---0---0---0---0--

E-----------------------------------5-----5
B-------------------------------------------
G----------------------5---5---5-----5
D----3---3---3---3---------------7-----7
A--5---5---5---5--------------------------
E--------------------5---5---5-


I'll finish the rest later....
Comments