Interpol - Evil Chords & Tabs

 

Evil Chords & Tabs

Interpol Chords & Tabs

Version: 2 Type: Tab 0 ratings
1 star 2 stars 3 stars 4 stars 5 stars
comments

Evil Tab

   
-------------------------------------------------------------------------------
			     Evil - Interpol
-------------------------------------------------------------------------------
Tabbed by: Bert
Email: kline.159@osu.edu

Tuning: eBGDAE

Verse
e|-------------------|
B|-------------------|
G|---10--3---2---7---|
D|---10--3---2---7---|
A|---8---1---0---5---|
E|-------------------|
[ Tab from: http://www.guitartabs.cc/tabs/i/interpol/evil_tab_ver_2.html ]
Chorus
e|---------------------------|
B|---------------------------|
G|---10--7---3---2---5---3---|
D|---10--7---3---2---5---3---|
A|---8---5---1---0---3---1---|
E|---------------------------|

Fill
e|-------------------------|
B|--8--8--6--6--6--6--6----|
G|--10-10-10-10-10-10-10---|
D|-------------------------|
A|-------------------------|
E|-------------------------|

Later
e|-------------------------|
B|--10--10-10--10--10-10---|
G|--10--10-10--9---7--7----|
D|-------------------------|
A|-------------------------|
E|-------------------------|


| /  slide up
| \  slide down
| h  hammer-on
| p  pull-off
| ~  vibrato
| +  harmonic
| x  Mute note
==============================================================================
Comments