Interpol - Evil Chords & Tabs

 

Evil Chords & Tabs

Interpol Chords & Tabs

Version: 1 Type: Bass Tab 0 ratings
1 star 2 stars 3 stars 4 stars 5 stars
comments

Evil Bass Tab

Interpol-Evil 
Bass Tab
Tabbed by: Daniel Tran
Email: danielmt@uci.edu

Intro/Verse

G|-----------------------------------|
D|-----------------------------------|
A|---8--8-8-------------------5-5-5-5|
E|--------------6-6-6--5--5----------|
 Repeat

Pre-Chorus

G|----------------------|
D|----------------------|
A|--8-8----------5-5----|
E|-------6-6-5-5--------|
 Repeat

Chorus
[ Tab from: http://www.guitartabs.cc/tabs/i/interpol/evil_btab.html ]
G|--------------------------------------------------------------------|
D|--------------------------------------------------------------------|
A|-8-8-8-8-8-8-8-8--5-5-5-5-5-5-5-5-----------------------------------|
E|-----------------------------------6-6-6-6-6-6-6-6--5-5-5-5-5-5-5-5-|

Repeat
(dont think the end of the chorus is right) 
Hey this is my 1st tab ever, soo if you guys have any corrections which im sure you will just email me.
Comments