Interpol - Direction Chords & Tabs

 

Direction Chords & Tabs

Interpol Chords & Tabs

Version: 1 Type: Tab 0 ratings
1 star 2 stars 3 stars 4 stars 5 stars
comments

Direction Tab

Artist: Interpol
Song: Direction
Album: Six Feet Under Soundtrack Vol. 2
Tabbed by: Fernando Maravilla
Email: i_heart_interpol@hotmail.com

Tuning: Standard


Note: There Are Two Guitars In The Song But You Can Only Hear One Most Of The Time. But
Both Guitar Parts Are Included. I am not going to put up the song structure mainly
because it is simple. You can hear the changes. I have supplied the parts and you can
structure it yourself. I feel very strongly that this is correct but there is always
room to improve so please email me with corrections/comments.

Enjoy, Interpol

Intro:
e|---------------------------------------------------------------------------|
B|---------------------------------------------------------------------------|
G|-5-------------------------------------------------------------------------|
D|-2-------------------------------------------------------------------------|
A|---------------------------------------------------------------------------|
E|---------------------------------------------------------------------------|

(Bass) Played Softly Shortly After:
e|---------------------------------------------------------------------------|
B|---------------------------------------------------------------------------|
G|---------------------------------------------------------------------------|
D|---------------------------------------------------------------------------|
A|-15-17-15-14---------------------------------------------------------------|
E|-------------15-17-16-17---------------------------------------------------|
[ Tab from: http://www.guitartabs.cc/tabs/i/interpol/direction_tab.html ]
Play This For A While Then You Can Play The Main Riff When It Comes In

Main Riff/Rest Of Song:
e|---------------------------------------------------------------------------|
B|---------------------------------------------------------------------------|
G|---------------------------------------------------------------------------|
D|-13-14-14-13-14-14-13-14-14-13-14-14---------------------------------------|
A|-------------------------------------17-15-15-17-15-15-17-15-15-17-15-15---|
E|---------------------------------------------------------------------------|

This Starts At 2:40 With Tremolo Picking:
e|---------------------------------------------------------------------------|
B|---------------------------------------------------------------------------|
G|---------------------------------------------------------------------------|
D|-10------------------12-------------------14-------------------------------|
A|---------------------------------------------------------------------------|
E|---------------------------------------------------------------------------|

(Bass) End The Song With This:
e|---------------------------------------------------------------------------|
B|---------------------------------------------------------------------------|
G|---------------------------------------------------------------------------|
D|---------------------------------------------------------------------------|
A|-15-17-15-14---------------------------------------------------------------|
E|-------------15-17-16-17---------------------------------------------------|

Questions? Comments? Love? Corrections? Send It All To: i_heart_interpol@hotmail.com

Please Rate,

Thanks.
Comments