Interlude - Softly Spoken Sister Chords & Tabs

 

Softly Spoken Sister Chords & Tabs

Interlude Chords & Tabs

Version: 1 Type: Bass Tab 0 ratings
1 star 2 stars 3 stars 4 stars 5 stars
comments

Softly Spoken Sister Bass Tab


   VERSE
G---3-2------------------------------------------------------------
D-------3-5(p)3-2--------------------------------------------------
A-----------------4--5--3--1--0--------3--5------------------------
D--------------------------------5--3------------------------------
[ Tab from: http://www.guitartabs.cc/tabs/i/interlude/softly_spoken_sister_btab.html ]
   CHORUS            (x4)                    (x8) 
G-------------------------------------------------------------------
D----------------------------0-0---0-0------------------------------
A----------------------------------------3-3------------------------
D--12--12\5--5/8--8/10-----------0-----0----------------------------

This should be right I think - any queries feel free to e-mail me.

If you haven't even heard of this band - 
http://www.interlude.i8.com
Comments