Integrity - Vocal Test Chords & Tabs

 

Vocal Test Chords & Tabs

Integrity Chords & Tabs

Version: 1 Type: Tab 0 ratings
1 star 2 stars 3 stars 4 stars 5 stars
comments

Vocal Test Tab

SONG: Vocal Test
BAND: Integrity
ALBUM: Humanity Is The Devil
TABBED BY: Chris Hall (L2N@netzero.net)
[ Tab from: http://www.guitartabs.cc/tabs/i/integrity/vocal_test_tab.html ]
E-----------------------------------------------------------|
B-----------------------------------------------------------|
G-----------------------------------------------------------|
D-----------------------------------------------------------|
A--2-------------2-------------3------2----6-----5-----3-3--|
E--0-0-0-0-0-0-0-0-0-0-0-0-0-0-1-0-0-0-0-0-4-0-0-3-0-0-1-1--|

E---------------------------|
B---------------------------|
G---------------------------|
D---------------------------|
A--3--2----3--2--6--5--3-3--|
E--1--0----1--0--4--3--1-1--|
Comments