Insyderz - Trigger Happy Chords & Tabs

 

Trigger Happy Chords & Tabs

Insyderz Chords & Tabs

Version: 2 Type: Bass Tab 0 ratings
1 star 2 stars 3 stars 4 stars 5 stars
comments

Trigger Happy Bass Tab

trigger happy
the insyderz
motor city ska 
tabbed by jared gardner     punkrawkfreak@hotmail.com

intro, 1x
G|----------------|
D|----------------|
A|-3-3-3--5-5-5---|
E|----------------|

chorus, 4x
G|-0------------------------|
D|-----2---0----------------|
A|-------------3-3-3--5-5-5-|
E|--------------------------|
[ Tab from: http://www.guitartabs.cc/tabs/i/insyderz/trigger_happy_btab_ver_2.html ]
verse, 4x
G|-0--0-2-0-------------------------------|
D|-----------0--0-2-0------------0--0-2-0-|
A|---------------------3--3-5-3-----------|
E|----------------------------------------|

the second time you play the verse, replace the last 0--0-2-0 with
0--0-2-3, and the fourth time, replace it with 3-3-3--5-5-5, other
than that, everything's normal (that does make sense, right?)

since the bass line is so high, and not mixed in very loud, i'm pretty
sure i got something wrong . . . whoever finds it first wins $10,000
in cash (not really) actually, if i did screw up, tell me:
punkrawkfreak@hotmail.com
Comments