Insyderz - House For Sale Chords & Tabs

 

House For Sale Chords & Tabs

Insyderz Chords & Tabs

Version: 2 Type: Bass Tab 0 ratings
1 star 2 stars 3 stars 4 stars 5 stars
comments

House For Sale Bass Tab

   
House for Sale 
The Insyderz
Motor City Ska
tabbed by jared gardner     punkrawkfreak@hotmail.com

intro    fill 1
G|------|-----------------------------------------|
D|------|-----------------------------------------|
A|-/5\--|-0-0-0-0-0-4---4-4-4-5-5-5-5-5-7---7-7-7-|
E|------|-----------------------------------------|

verse
G|-------------------------|
D|-------------------------|
A|-------------------------|
E|-0---0-4---4-5---5-7---7-|

fill 2
G|-------------------------------------
D|-------------------------------------
A|-2-2-2-2-2-2-2-2-3-5-5-5-5-5-5-5-5-5-
E|-------------------------------------

G|-------------------------------------|
D|-------------------------------------|
A|---------------------------------1-2-|
E|-2-2-2-2-2-2-2-2-2-3-3-3-3-3-3-3-----|

fill 3
G|----------------------------------------------------------------
D|----------------------------------------------------------------
A|-2-2-2-2-2-2-2-2-2-5-(solo 1)-2-2-2-2-2-2-2-2-2-4-(drum solo)---
E|----------------------------------------------------------------
[ Tab from: http://www.guitartabs.cc/tabs/i/insyderz/house_for_sale_btab_ver_2.html ]
G|----------------------------------------------------------------|
D|----------------------------------------------------------------|
A|-2-2-2-2-2-2-2-2-2-5-(solo 2)-2-2-2-2-2-2-2-2-2-5-5-5-5-5-5-5-5-|
E|----------------------------------------------------------------|

solo 1
G|---0-3h5p3-----|
D|-3---------3-0-|
A|---------------|
E|---------------|

solo 2
G|-5---3---------|
D|---------5---3-|
A|---------------|
E|---------------|

outtro 1
G|-----------------------------------|
D|-----------------------------------|
A|-0-0----0-4-4----4-5-5---5-7-7-7-7-|
E|-----------------------------------|

outtro 2
G|--------------------------------|
D|--------------------------------|
A|-0----0-4-4---4-5-5-5-5-7-7-7-7-|
E|--------------------------------|

playing order:
intro - 6x
fill 2 - 2x
verse - 4x
fill 2 - 2x
fill 1 - 4x
fill 2 - 2x
verse - 4x
fill 3 - 1x
fill 1 - 4x
outtro 1 - 4x
outtro 2 - 4x
end on A

well, that's it . . . does it bug you as much as it does me that all the 
little riffs have names?  i mean, i guess they have to for the playing 
order, but maybe i could give them numbers instead of names . . . hmm . . .
maybe next time . . . anyway, mistakes go to punkrawkfreak@hotmail.com
Comments