Insyderz - He Has Made Me Glad Chords & Tabs

 

He Has Made Me Glad Chords & Tabs

Insyderz Chords & Tabs

Version: 2 Type: Bass Tab 0 ratings
1 star 2 stars 3 stars 4 stars 5 stars
comments

He Has Made Me Glad Bass Tab

He Has Made Me Glad
The Insyderz
Skalleluia
tabbed by jared gardner     punkrawkfreak@hotmail.com

this is the verse and intro, play it pretty slow
G|-------------------------------------------------|
D|-----5-------------5---------5-------------------|
A|--3-----3--0h3--3----3----3-----3--0h3--3-----3--|
E|-------------------------------------------3-----|

this is the chorus . . . pretty slow
G|-----------------------------------------------|
D|-----------------------------------------------|
A|--3-----3-----3-----3-----3-----3-----3-----3--|
E|-----3-----------3-----------3-----------3-----|
[ Tab from: http://www.guitartabs.cc/tabs/i/insyderz/he_has_made_me_glad_btab_ver_2.html ]
here's the part where it starts to sound different
G|-----------------------------------------------|
D|---------3-3--3----------------------3-3--3----|
A|--3-3--3--------3-3--3-0-3--3-3-3--3--------3--|
E|-----------------------------------------------|

this is the really fast part, play this 'til the end of the song
G|------5--0-5-0-0--3-5------5--0-5--|
D|-----------------------------------|
A|--3-3------------------3-3---------|
E|-----------------------------------|

that's it, i guess, if\when all u ppl who are better than me
(there's plenty of you) find some mistakes, let me know so i can
publicly embarrass myself and correct my own tab :oD

Comments