Inspired - Follow Me Chords & Tabs

 

Follow Me Chords & Tabs

Inspired Chords & Tabs

Version: 1 Type: Tab 0 ratings
1 star 2 stars 3 stars 4 stars 5 stars
comments

Follow Me Tab

Tabbed by:scott
Email:
[ Tab from: http://www.guitartabs.cc/tabs/i/inspired/follow_me_tab.html ]
Tuning:normal
intro
e|---------------------------------------------------------------------------|
B|---------------------------------------------------------------------------|
G|--5-5----------------------------------------------------------------------|
D|--5-5----------5-5----------7-7----------3-3---------------------------------|
A|--3-3--5-7-5-3-5-5----------7-7----------3-3---------------------------------|
E|---------------3-3-5-7-5-3--5-5-7-9-7-5--1-1-3-5-3-1----------------------------------|
verse
e|---------------------------------------------------------------------------|
B|---------------------------------------------------------------------------|
G|--5-------------------------------------------------------------------------|
D|--5-x4-3----7----3-------------------------------------------------------------|
A|--3----3-x4-7-x4-3-x4--------------------------------------------------------------|
E|-------1----5----1----------------------------------------------------------|
chorus
e|---------------------------------------------------------------------------|
B|---------------------------------------------------------------------------|
G|---------------------------------------------------------------------------|
D|---------------------------------------------------------------------------|
A|---------------------------------------------------------------------------|
E|---------------------------------------------------------------------------|

Comments