Insanity - And Then They Died Chords & Tabs

 

And Then They Died Chords & Tabs

Insanity Chords & Tabs

Version: 1 Type: Tab 0 ratings
1 star 2 stars 3 stars 4 stars 5 stars
comments

And Then They Died Tab

Intro
---------------------------------------|
---------------------------------------|
----2-------------3--------------------|
-------3--------5----6-6---------------|
---------------------------7h8~--------|
-6----------4------------6-------------|

------------------------------------------|
------------------------------------------|
--0--5-------6----------8---------4/9-----|
---------3-------4--6---------3-----------|
------------------------------------------|
------------------------------------------|

verse 1
x2
-------------------------------------------------------|
-------------------------------------------------------|
-------------------------------------------------------|
-x-x-3--x-x--3-x-x-------------------------------------|
-x-x-3--x-x--3-x-x--4/5/9/7--9/7-----------------------|
-x-x-1--x-x--1-x-x-------------------------------------|
[ Tab from: http://www.guitartabs.cc/tabs/i/insanity/and_then_they_died_tab.html ]
----------------------------------------------------------------|
----------------------------------------------------------------|
----------------------------------------------------------------|
-x-x-3-x-x-1-x-x------x-x-1-x-x-3-x-x---------------------------|
-x-x-3-x-x-3-x-x--4^--x-x-3-x-x-2-x-x--3-4-5-6------------------|
-x-x-1-x-x-3 x-x------x-x-1-x-x-1-x-x---------------------------|

chorus
x4
----------------------------------------------------------|
----------------------------------------------------------|
----------------------------------------------------------|
-3-xx-3-xx------------------------------------------------|
-3-xx-3-xx--6/7-------------------------------------------|
-1-xx-3-xx--4/5-------------------------------------------|
x2
-------------------------------------------------------------------------|
-------------------------------------------------------------------------|
-------444444--------444-------------------------------------------------|
-3333--222222----444-222-------------------------------------------------|
-3333--000000----222-222--4/5--------------------------------------------|
-1111------------222------6/7--------------------------------------------|


Ps: you wont find this song on lime wire,kazaa,the radio, or any other music thingy 
because my band doesn't have a record deal or anything. we just started.
its a fast song.
have fun
MERRY CHRISTMAS YO!!!
email me if you want not like ur eva gunna look up "and then they died" in this thing
i_skate_popwar@hotmail.com
Comments