Insane Clown Posse - Rainbows Chords & Tabs

 

Rainbows Chords & Tabs

Insane Clown Posse Chords & Tabs

Version: 1 Type: Tab 2 ratings
1 star 2 stars 3 stars 4 stars 5 stars
comments

Rainbows Tab

Insane Clown Posse - Rainbows. Off Bizaar Bizaar



e---------------------------------------------------
b---------------------------------------------------
g---------------------------------------------------
d---2--------2--------2-----------------------------------
a-3--------3--------3--------2-------------------------------
e-----3-3------3-3------3-3---3-3---------------------------

i like blah blah blah.....



e----------------------------------------------------------
b----------------------------------------------------------
g-----------------------------------------------------------
d-4-4-4--------4-4-4--------4-4-4--------2-2-2-3-3-3---
a-2-2-2-5-5-5-2-2-2-5-5-5-2-2-2-5-5-5-0-0-0-1-1-1---
e--------3-3-3--------3-3-3--------3-3-3------------------
something tells me....


[ Tab from: http://www.guitartabs.cc/tabs/i/insane_clown_posse/rainbows_tab.html ]
e-4---5-----------------------------------------------
b-4---5-----------------------------------------------
g---------------------------------------------------
d---------------------------------------------------
a---------------------------------------------------
e---------------------------------------------------
when they are yelling at eachother.

those are all the guitar parts for Rainbow and as an added bonus heres the "cool"
tab in the ICP song Play With ME


Insane Clown Posse - Play With Me. Off of Jeckel Borthers


e---------------------------------------------------
b---------------------------------------------------
g---------------------------------------------------
d-----7-9-10-9-7-------------------------------------
a--9---------------9-----------------------------------
e---------------------------------------------------


why don't you come play with me?


there arent a lot of ICP tabs so to ease boredom at work ill tab out out a few. - woggie
Comments