Insane Clown Posse - My Shine Chords & Tabs

 

My Shine Chords & Tabs

Insane Clown Posse Chords & Tabs

Version: 1 Type: Bass Tab 0 ratings
1 star 2 stars 3 stars 4 stars 5 stars
comments

My Shine Bass Tab

This song was released at InsaneClownPosse.com the night before Thanksgiving

Verse
G----------------------------------------
D----------------------------------------
A---------------5--55--------------------
E-0--00--5--55---------3---33------------
[ Tab from: http://www.guitartabs.cc/tabs/i/insane_clown_posse/my_shine_btab.html ]
Chorus
G----------------------------------------
D----------------------------------------
A---------------5(x8)--------------------
E-0(x8)-5(x8)---------3(x8)-------------

Post Chorus
G----------------------------------------
D----------------------------------------
A----------------------------------------
E-0-00--0-0-0-000------------------------


If you have any questions or anything e-mail me at Kchev20@hotmail.com
Comments